Аккорды Polnalyubvi - Кометы

Добавлено: @romashka
Дата добавления: 09 Сентября 2020г.
Рейтинг:
0.0
Просмотров: 35
Транспонировать - +
Каподсатр на 3 лад, если хочешь звук как в оригинале ;)
     Am                                 C                           F
e|-----------------|----0------------|------------0-3--|--------1-0------||------------3-3-1|
B|-------------0---|-1-----1----1-1--|--1-----3--------|-1---------------||-----------------|
G|----2-2--------2-|---------2-------|----0-----0------|---0--------2----||--2-2-2-2-2------|
D|---2----2--------|----------2------|------2----------|-----2--------3--||-----------------|
A|--0-------0------|----0------------|--3-----------3--|---------------3-||-----------------|
E|-----------------|-----------------|-----------------|------------1----||-1----1----------|

   Dm          E                Am                       F                     C
e|--0------1--0----|------↓-0--8-----|--------------0-1|--3--------------||-3-1-0-----------|
B|----3------------|-0----↓------5---|-----5-----5-----|-----------------||--------1---1---1|
G|-----2---------1-|---1--↓----5-----|---5-----5-------|-----2----2---2--||-------0---0---0-|
D|--0----0------2--|------↓----------|-----------------|----3----3---3---||-----------------|
A|-----------------|------↓----0-----|-0-----0---------|-----------------||-----3---3---3---|
E|------------0----|-----0↓----------|-----------------|--1----1---1-----||-----------------|

e|-3-1-0-----------|-----------------|-----------------|-----------------||-----------------|
B|--------0---0---0|-----------------|-----------------|-----------------||-----------------|
G|-------1---1---1-|-----------------|-----------------|-----------------||-----------------|
D|-----------------|-----------------|-----------------|-----------------||-----------------|
A|-----------------|-----------------|-----------------|-----------------||-----------------|
E|-----0---0---0---|-----------------|-----------------|-----------------||-----------------|

↓ - сыграть аккорд E один раз

Слова:
Тот, кто погас, будет ярче светить, чем кометы
Пролетающие над планетой
Из пустоты без твоей красоты не родится
Юности вольная птица
Лети над землёй
Словно орёл, словно орёл
Свети над землёй
Словно огонь, словно огонь
Тот, кто терял, будет снова любить
За рассветом близится вечное лето
Ночь до зари, ты в душе береги свою птицу
Не дай ей разбиться
Лети над землёй
Словно орёл, словно орёл
Свети над землёй
Словно огонь, словно огонь
Наверх