Аккорды Порнофильмы - Сожги Дисней лэнд

Добавлено: @romashka
Дата добавления: 28 Июня 2021г.
Рейтинг:
0.0
Просмотров: 69
Транспонировать - +
  Em
D------2----------0-2-------2-0-0-----------
A---------0-0-2-----------------------2-0-2- (4 раза) 
E-0-0------------------0-0--------------------

  G                       Am                 Em
D--------------------------------------------------2----------0-2-----2-0-0----------
A--------------2-3-2-0-0-------------------------0-0-2---------------------2-0-2- (2 раза) 
E-3-3-3-3----------------3-3-2-3-2-0-0------------------0-0-------------------

G                                     Am Em
Утром проснулся в луже, покрытой льдом. 
G                                  Am Em
Мокрые листья приклеились к рваной одежде.
G                            Am  Em
Я заблудился: где же мой ёбаный дом?
G                          Am
Нету надежды, всё как и прежде.

C

                  Em G C
Поедем в Дисней лэнд!
     Am           Em G C 
Поедем в Дисней лэнд!
     Am           Em G C
Поедем в Дисней лэнд!
     Am           Em G C Am
Поедем в Дисней лэнд!

C

G                               Am Em
Ветер. Плюётся собачьей слюною дождь. 
G                                   Am Em
Круглый ожог сигареты на правом запястье.
G                         Am    Em
Ты рисовала, только опять не похож:
G                           Am 
Чёрный фломастер рисует ненастье. 

C

                 Em G C
Нарисуй Дисней лэнд!
           Am    Em G C
Нарисуй Дисней лэнд!
           Am    Em G C
Нарисуй Дисней лэнд!
           Am    Em G C Am
Нарисуй Дисней лэнд!

C

G                                Am Em
Может настанет, завтра настанет весна, 
G                          Am Em
Будет теплее, будем счастливей мы. 
G                                     Am Em
Будет опять не до сна, будет нам не до сна:
G                               Am  C
Вечное лето в стране бесконечной зимы. 

                Em G C
Сожги Дисней лэнд!
         Am     Em G C
Сожги Дисней лэнд!
         Am     Em G C
Сожги Дисней лэнд!
         Am    Em G C Am
Сожги Дисней лэнд!

C

G                         Am
Это не правда, такого не будет: 
Bm                    C     D Bm
лето твоё уйдёт, так и не наступив.
G                           Am
Когда-то устану, закинусь колёсами, 
Bm                    C     D Bm
ржавой водой из под крана запью я их.
Em                         G
Оставлю записку на старом столе,
Am               Bm
оставлю записку тебе:

                   Em G C
"Я уехал в Дисней лэнд!"
   Am              Em G C
Уехал в Дисней лэнд!
   Am              Em G C
Уехал в Дисней лэнд!
   Am             Em G C Am
Уехал в Дисней лэнд!

C

  Em                                                G                   Am
D------2---------0-2------2-0-0-----------------2-------0-2-----2-0-0---------
A---------0-0-2---------------------2-0-2--------0-0-2------------------2-0-2- (2 раза) 
E-0-0-----------------0-0--------------------0-0---------------0-0---------------- 
Наверх