Аккорды ПОШЛАЯ МОЛЛИ - Любимая песня твоей сестры

Добавлено: @romashka
Дата добавления: 24 Января 2022г.
Рейтинг:
0.0
Просмотров: 46
Транспонировать - +
E        B             C#m            A
Я очень рад, что ты раздеваешься потому ... что
E         B       C#m               A
Потому, что ты одеваешься в хуй пойми ... что
E                      B
Мне стыдно с тобой гулять. 
            C#m           A
Ты сумасшедшая, целовала асфальт
E               B
Перепутал кровать 
            C#m           A
Трахнул на маминой - это не правильно

B                        A
В горле ком, объяснюсь потом

E        B             C#m            A
Я очень рад, что ты раздеваешься потому ... что
E         B       C#m               A
Потому, что ты одеваешься в хуй пойми ... что

E                      B
Сколько можно танцевать?
            C#m           A
Ты бесконечная - нюхать, не спать, не спать
E                     B
Перестал тебя понимать
            C#m           A
Плачешь без повода - ты еще та пизда

B                        A
В горле ком, объяснюсь потом 

E        B             C#m               A
Я очень рад, что ты раздеваешься потому что
E         B       C#m               A
Потому, что ты одеваешься в хуй пойми что

E                      B
Мне стыдно с тобой гулять 
            C#m           A
Ты сумасшедшая, целовала асфальт
E             B     C#m        A 
Как это понимать, как это понимать?


Вокальная партия:

   Я очень рад, что ты раздеваешься  потому ...    что
   Потому,      что ты одеваешься    в хуй пойми   что
d|----------------------------------------------------
A|----------------------------------------------------
F|----------------------------------------------------
C|----6---4-----4--4--4--6--4-------------6-----------
G|--7*--7----------------------7--4---4-7----------7--
D|----------------------------------------------------
* только первый раз

   Мне стыдно с тобой гулять. Ты сумасшедшая,      целовала асфальт
       Перепутал кровать.     Трахнул на маминой - это не правильно
d|------------------------------------------------------------------
A|------------------------------------------------------------------
F|------------------------------------------------------------------
C|-----6--6-----4-----------------------4--6----------------4--6----
G|-----------7-----7---------------6-7------------------6-7---------
D|--------------------7--------7-7------------------7-7-------------

   В горле ком, объяснюсь потом
d|------------------------------
A|------------------------------
F|------------------------------
C|----4--6--4---------4---6--4--
G|--------------7--5------------
D|------------------------------ 

Гитара в D (под свой вокал перестройте).
Наверх