Аккорды ПроWода - Не важно (Джаз для тебя)

Добавлено: @romashka
Дата добавления: 06 Октября 2018г.
Рейтинг:
0.0
Просмотров: 21
Транспонировать - +
Bb
Ты
           Dm
На моей груди
             G
Спишь, и еле слышно,
                   Cmaj7 Fsus2add11+/C Cmaj7
Как дождь стучит в окно.
     F
И неважно,
       A
Нам не важно,
          Bb       Bbm
Что будет завтра снег
F       A
Или ничего.
    Dm      Bb A
Я нашёл тебя...
    Dm      Bb A
Я нашёл тебя...
    G     C
Я искал давно
         F               A
Свет в твоих глазах да тепло.

     Bb
Лишь ты
              Dm
Лучше всех, и мы
             G
Снова будем вместе,
             Cmaj7 Fsus2add11+/C Cmaj7
Мне с тобой легко.
     F
И не важно,
       A
Нам не важно,
          Bb      Bbm
Что будет завтра снег
F          A
Или вовсе ничего.

    Dm    Bb A
Я запомню...
      Dm   Bb A
Я всё помню...
   G     
Я помню
 C                 F       A
Страсть в твоих глазах и тебя.

Соло:
   Bb                            Dm                         Gm
G|--------|---------------------|------|------------------------|-----------------|
D|-8------|-10---8----7----8----|-7----|-10---8----7-----5---7--|-----8---7----5--|

                              Cmaj7   Fsus2add11+/C Cmaj7      F
G|----------7----5---3---5---|------|------------------------------|--------------|
D|-5---5---------------------|-5----|-3---5---7---5----5---3---5---|-5-/-7-----7--|
                          A                              Bb
B|---------------------------|---------|---------------|---6-----------6------------|
G|---------------------------|---------|---------------|-------7-----------7------6-|
D|-10---8----7----5---3---5--|-5-/-7---|-10---8----7---|-----------8-----------8----|
A|---------------------------|---------|---------------|-8--------------------------|

   Bbm                               F                     A
B|-6-----------6-----------6-------|---------------------|------------------------|
G|-----6-----------6-----------6---|-----------5---------|-6---6---6---7----9-----|
D|---------8-----------8-----------|-7----7---------7----|------------------------|

   Bb                                                        Dm
B|-----6-----------6-------------|-6-----------6----6------|----6----------6-------------|
G|---------7-----------7-------7-|-----7-------------------|--------7----------7-------7-|
D|-------------8-----------8-----|---------8-------------8-|------------7----------7-----|
A|-------------------------------|-------------------------|-5---------------------------|
E|-6-----------------------------|-------------------------|-----------------------------|
                              Gm                 C                    F
B|-6-----------6----6-------|------------------|--------------------|-------------------|
G|-----7--------------------|------------------|------7-------------|-------------------|
D|---------7-------------7--|-5-----7----8-----|-10-------10---8----|-7----7----8----7--|

   A                  Bb
B|------------------|-----6-----------6---------------|-6-----------6----6--------|
G|------------------|---------7-----------7-------7---|-----7---------------------|
D|-7---7----7-------|-------------8-----------8-------|---------8-------------7---|
A|------------------|---------------------------------|---------------------------|
E|------------------|-6-------------------------------|---------------------------|

   Dm                                                            Gm
B|-----6-----------6---------------|-6-----------6----6--------|------------------|
G|---------7-----------7-------7---|-----7---------------------|------------------|
D|-------------7-----------7-------|---------7-------------7---|-5-----7----8-----|
A|-5-------------------------------|---------------------------|------------------|

   C                           F                A
A|-6---6---6---7----8----8---|-8--------------|-----------------------|
E|---------------------------|----------------|-6--4--6--4--6---------|

Bb
Ты
           Dm
На моей груди
           G
Вот уже проснулась
             Cmaj7 Fsus2add11+/C Cmaj7
Слушать шум дождя.
        F
Мы в постели — Да, да, да! —
       A
Так теплее,
         Bb       Bbm
И нам не страшен снег
  F         A
И даже пустота.

    Dm      Bb A
Я нашёл тебя...
    Dm      Bb A
Я нашёл тебя...
    G      C
Я искал давно
         F               A
Свет в твоих глазах да тепло.

    Dm     Bb A
Я запомню...
      Dm   Bb A
Я всё помню...
  G     
Я помню
  C                F       A
Страсть в твоих глазах и тебя.
comments powered by Disqus
Наверх