Аккорды Психея - Слезы (feat.MC Доктар)

Добавлено: @romashka
Дата добавления: 18 Апреля 2013г.
Рейтинг:
5.0
Просмотров: 461
Транспонировать - +
Вступление:
C#||--------------------------|----------------------------|
G#||--------------------------|----------------------------|
E ||--------------------------|----------------------------|
B ||--0----1--0-0--1-1--3--1--|--0----1--0-0-------5*------|
F#||--0----1--0-0--1-1--3--1--|--0----1--0-0--5*-5*---5*-5*|
B ||--0----1--0-0--1-1--3--1--|--0----1--0-0---------------|

C#||-------------|
G#||-------------|
E ||-------------|
B ||--x-x-x------|   > 4 раза
F#||--x-x-x------|
B ||--0-0-0--15b-| 

Куплет (with wah-wah):
C#||----------------------------------|
G#||----------------------------------|
E ||--8-7-7-7-8-7-7-7-8-7-7-7-8-7-7-7-|
B ||----------------------------------|
F#||--6-5-5-5-6-5-5-5-6-5-5-5-6-5-5-5-|
B ||----------------------------------|

Рэп Азовский:
C#||-----------------------|
G#||-----------------------|
E ||-----------------------|
B ||--0-0--0-0----0-0--0-0-|
F#||--0-0--0-0----0-0--0-0-|
B ||--0-0--0-0----0-0--0-0-|


Рэп мс Доктор:
C#||------------------------|---------------------|----------------------|
G#||------------------------|---------------------|----------------------|
E ||--7/---19----8/---20----|---------------------|----------------------|
B ||------------------------|--0-0--------------0-|--0-0--------0--0-0-0-|
F#||---with octave----------|--0-0--------------0-|--0-0--------0--0-0-0-|
B ||------------------------|--0-0--------------0-|--0-0--------0--0-0-0-|


Кода:
C#||------------------------||
G#||------------------------||
E ||------------------------||
B ||--0----13----0----13----||
F#||--0----13----0----13----||
B ||--0----13----0----13----||
Наверх