Аккорды Пурген - Полёт в мусоропровод

Добавлено: @romashka
Дата добавления: 18 Февраля 2020г.
Рейтинг:
0.0
Просмотров: 38
Транспонировать - +
Вступление: x2
e-(--0-7-5---10-9-5-)    ---2-9-7-(--12-11-7)
B-(0-------0--------) x2 -0-------(0--------) x3
G-------------------     --------------------
D-------------------     --------------------
A-------------------     --------------------
E-------------------     --------------------

Проигрыш: x2
e|-(2-3----)    -2-3-0---(2-3----)    -2-3-5-3
B|-(----3-3) x3 -------3-(----3-3) x3 --------
G|---------     ------------------    --------
D|---------     ------------------    --------
A|---------     ------------------    --------
E|---------     ------------------    --------

G5            A5     D5        B5
Я выйду в коридор, ведро висит в руке, 
G5            A5     D5    B5
Люк открою я, наполню я края, 
G5            A5     D5        B5
Случайно упаду, как будто бы нельзя 
G5            A5     D5    B5
И улечу туда, в неведомы края.

Проигрыш x2
 
G5            A5     D5        B5
Я буду так лететь и медленно смотреть 
G5            A5     D5        B5
Как постепенно приближаюсь к куче разного. 
G5            A5     D5   B5
Полет, полет в мусоропровод
G5            A5     D5   B5
Полет, полет в мусоропровод

Проигрыш x2

G5            A5     D5        B5
Пока я так летел, я видел много тел, 
G5            A5     D5   B5
Которые грызли мусоропровод. 
G5            A5     D5      B5
Кирпичные сердца, железные мозги, 
G5            A5     D5     B5
Просто ублюдки, гнилые червяки.

Проигрыш x2
 
G5            A5     D5     B5
Холодная мечта, несбыточна она, 
G5            A5     D5   B5
Железная моя, кирпичная моя.
G5            A5 D5 B5
Ля ля ля ля ля ля...

Проигрыш x2
comments powered by Disqus
Наверх