Аккорды RADIO TAPOK - Жизнь за царя

Добавлено: @romashka
Дата добавления: 02 Августа 2022г.
Рейтинг:
0.0
Просмотров: 68
Транспонировать - +
Вступление (х2) + припевы:
-------------------------------- | --------------------------------- | 
-------------------------------- | --------------------------------- | 
-------------------------------- | --------------------------------- | 
-------------------------------- | --------------------------------- | 
0-0-7-8---5---7---3---5---3-2--- | 0-0-7-8---5---7---3---5---------- | 
-------------------------------- | -----------------------------3--- | 

-------------------------------- | --------------------------------
-------------------------------- | --------------------------------
-------------------------------- | --------------------------------
-------------------------------- | --------------------------------
0-0-7-8---5---7---3---5---3-2--- | 0-0-7-7---7---7---7---6---------
-------------------------------- | ----8-8---8---7---8---7---------
(по-хорошему, тут во всех местах, где тройной дефис "---" между цифрами, нужно дергать открытую пятую струну.. Но если
будешь играть на акустике, без этого, как по мне, звучит мелодичнее)

Куплеты (аккордами):

Am C
Bo времена смут и людских страданий
Dm E
Ведомо мне преданье
Am C
Как в Костроме жил молодой Романов,
Dm E
Избранный править. Да, но

Am C
Польский король выслал убийц
C#5 Dm E
Что проведет тропами местный крестьянин

[Припев]:
(Тот риф, который писал в начале)

Am                                           C
И лях глубокий в снег вступал, не ведая беды
Dm                     E
А ветер волосы трепал, и заметал следы
Am                                         C
Сокрыв проходы тайных троп, что ведомы ему
Dm                         E
В глухих лесах седой холоп их молча вел во тьму

[Куплет 2]:

Am C
Сбились c пути, третьи сутки гаснут
Dm E
Лошади мрут и вязнут
Am C
Мы одарим дав серебра и злата
Dm E
Выведи - стань богатым
Am C
A этой глуши нет ни души
Dm E
Укажи путь поближе или умри-же

[Припев]:
(Тот риф, который писал в начале)

Am                                           C
И лях глубокий в снег вступал, не ведая беды
Dm                     E
А ветер волосы трепал, и заметал следы
Am                                         C
Сокрыв проходы тайных троп, что ведомы ему
Dm                         E
В глухих лесах седой холоп их молча вел во тьму

И теперь бридж:

F F#m G Em
Признайся, мы сбились, глупец, ты сгубил нас
F F#m G G#
Я знал путь, поверьте, вы шли к своей смерти! 
Наверх