Аккорды RADIO TAPOK - Numb (Cover Linkin Park на русском)

Добавлено: @romashka
Дата добавления: 11 Сентября 2022г.
Рейтинг:
0.0
Просмотров: 53
Транспонировать - +
.            F#m           Dsus2 
e|------------2-----5-----4--0------------0---------|
B|---2--5--2--2--------------3---------2-----2------|
G|------------2--------------2----------------------|
D|------------4--------------0----------------------|
A|------------4-------------------------------------|
E|------------2-------------------------------------|

     A              E
e|---5-----4-----0--0------------0------------------|
B|---2--------------0---------2-----2---------------|
G|---2--------------1-------------------------------|
D|---2--------------2-------------------------------|
A|---0--------------2-------------------------------|
E|------------------0-------------------------------|



F#m                        D
Я устал быть другим для себя
A               E
Утратив веру, и свой потеряв путь
F#m            D
Что мне сделать еще для тебя?
A                    E            D
Я словно под прессом, и на краю стою
                       E
(Да я попал в капкан, я снова попал в капкан)
     F#m    F#m/G             A             D
В каждом следующем шаге - найдешь лишь вину мою
                       E
(Да я попал в капкан, я снова попал в капкан)

F#m          A   D               A
Я застрял в себе, и всё свёл на нет,
        E                  F#m
Но я нашел, где-то там ответ
           A   D               A
Выходя из тьмы, просто став собой,
               E                  F#m
Перестав быть тем, кем я был с тобой

                  D
Ты же видишь, что душишь меня
A             E                    F#m
Крепко держа, боясь потерять контроль
                D
Да, я знаю, что это любя
     A           E                  D
Стать тем, кем ты хочешь, но на краю стою
                       E
(Да я попал в капкан, я снова попал в капкан)
     F#m    F#m/G             A             D
В каждом следующем шаге - найдешь лишь вину мою
                       E
(Да я попал в капкан, я снова попал в капкан)

F#m          A   D               A
Я застрял в себе, и всё свёл на нет,
        E                  F#m
Но я нашел, где-то там ответ
           A   D               A
Выходя из тьмы, просто став собой,
               E                  D
Перестав быть тем, кем я был с тобой

       E
И я знал, 
F#m           A        D
Что мог стать тем, кем хотел
      E
Но я знал,
      C#5/G#
также, что тебя  кто-то в свое время тоже терпел

F#m          A   D               A
Я застрял в себе, и всё свёл на нет,
        E                  F#m
Но я нашел, где-то там ответ
           A   D               A
Выходя из тьмы, просто став собой,
               E                  D
Перестав быть тем, кем я был с тобой

F#m          A   D               A
Я застрял в себе, и всё свёл на нет
        E                  F#m
(Я устал быть другим для себя)
             A   D               A
Я застрял в себе, и всё свёл на нет
        E                  F#m
(Я устал быть другим для себя)


    F#m
e|---2-----5-----4----------------------------------|
B|---2---------------------2--5--2------------------|
G|---2----------------------------------------------|
D|---4----------------------------------------------|
A|---4----------------------------------------------|
E|---2----------------------------------------------|

    F#m                             F#m
e|---5-----4-------------------------2--------------|
B|---2-----------5---------2--5--2---2--------------|
G|---2-------------------------------2--------------|
D|---4-------------------------------4--------------|
A|---4-------------------------------4--------------|
E|---2-------------------------------2--------------| 
Наверх