Аккорды «Rage Against The Machine»

Rage Against The Machine
Rage Against the Machine (сокращённо RATM) — американская альтернативная группа, существовавшая с 1991 по 2000 год и воссоединившаяся в 2007 году. В их музыке сочетается фанк рок с хип-хоп речитативом, но более всего группа известна своими крайне левыми политическими взглядами. Их тексты и общественные заявления содержали резкую критику американского империализма, капитализма, глобализации, войн, а также поддержку таких репрессированных деятелей, как Мумиа Абу-Джамал, Леонард Пелтиер и Абимаэль… Читать полностью... Rage Against the Machine (сокращённо RATM) — американская альтернативная группа, существовавшая с 1991 по 2000 год и воссоединившаяся в 2007 году. В их музыке сочетается фанк рок с хип-хоп речитативом, но более всего группа известна своими крайне левыми политическими взглядами. Их тексты и общественные заявления содержали резкую критику американского империализма, капитализма, глобализации, войн, а также поддержку таких репрессированных деятелей, как Мумиа Абу-Джамал, Леонард Пелтиер и Абимаэль Гузман. На своих выступлениях группа неоднократно сжигала американский флаг. Группа Rage Against the Machine была создана в 1991 году, когда сын кенийского революционера и племянник первого президента Кении гитарист Том Морелло увидел в ночном клубе выступление мексикано-американского рэпера Зака де ла Роча. Последний пригласил в группу своего школьного друга басиста Тима Коммерфорда, и они подали объявление в газету о поиске барабанщика, на которое откликнулся Брэд Уилк. Группа отыграла своё первое выступление на вечеринке дома у друга Коммерфорда и вскоре записала демо-кассету с 12 песнями. Записью заинтересовалось несколько лейблов, и в итоге группа подписала контракт с Epic Records, который предоставил им полный контроль над своим творчеством. Первый альбом «Rage Against the Machine» стал трижды платиновым, во многом благодаря успеху первого сингла «Killing in the Name». В 1993 г. группа выступила на фестивале «Lollapalooza», где они вышли на сцену полностью обнажёнными с заклеенными ртами в знак протеста против цензуры в США. Следующие два альбома «Evil Empire» (1996) и «The Battle of Los Angeles» (1999) заняли первые места в чартах «Billboard». В 2000 г. съемки их клипа «Sleep Now In The Fire», проходившие на Уолл-Стрит, привели к тому, что Нью-Йоркской фондовой бирже пришлось запереть двери из страха перед толпой фанатов. В этом же году вышел альбом «Renegades», который целиком состоял из кавер-версий. Зак де ла Роча был резко против выхода этого альбома, и сразу после этого заявил об уходе из группы. После распада трое участников (все, кроме вокалиста — целиком инструментальная часть группы) основали совместно с вокалистом недавно распавшихся «Soundgarden» Крисом Корнеллом супергруппу «Audioslave». В начале 2007 года Том Морелло объявил о воссоединении Rage Against the Machine, в качестве основного мотива указав необходимость участия группы в политических баталиях накануне президентских выборов в США. Незадолго до этого под псевдонимом The Nightwatchman он выпустил акустический альбом «One Man Revolution», стиль которого определил как «Вуди Гатри XXI века». 29 апреля 2007 г. Rage Against the Machine впервые за 7 лет вышли на сцену вместе в качестве хедлайнеров фестиваля Коачелла в Калифорнии. Так же параллельно с деятельностью в воссоединившихся Rage Against the Machine Зак де ля Роча выпускает одноименную ЕР проекта One Day as a Lion. Том Морелло создает группу Street Sweeper Social Club вместе с Бутсом Рейли. Альбом вышел в 2009 году в стиле фанк-рок/репкор. <Rage Against The Machine воюют с 'X Factor'> 2009 Флешмоб против «стерильной попсы» в Великобритании завершился оглушительным успехом. Как передает NME, антикапиталистический сингл Rage Against the Machine 1992 года победил в чартах звезду реалити-шоу The X Factor. «Killing in the Name» группы Rage Against the Machine возглавил британский чарт. За неделю было продано 500 тысяч копий сингла, прежде всего в цифровом формате. «The Climb» 18-летнего Джо Макэлдерри (Joe McElderry), кавер-версия песни Майли Сайрус, разошлась в количестве 450 тысяч копий. Акция протеста началась на Facebook, её организаторами были чета Джон и Трейси Мортеры (Jon, Tracy Morter). Они предложили всем энтузиастам покупать старый сингл Rage Against The Machine и выдвинуть его на первое место в чарты, не пустив на него Макэлдерри. Победители The X Factor возглавляли рождественские хит-парады Британии на протяжении последних четырех лет. Rage Against the Machine уже пообещали, что в знак признательности дадут в 2010-м бесплатный концерт в Великобритании. Доходы от акции, составившие, по данным BBC, 70 тысяч фунтов ($113 тысяч), достанутся благотворительной организации Shelter. Состав: * Зак де ла Роша (англ. Zack de la Rocha) — вокал * Том Морелло (англ. Tom Morello) — гитара * Тим Коммерфорд (англ. Tim Commerford) — бас-гитара * Брэд Уилк (англ. Brad Wilk) — барабаны Дискография * Rage Against the Machine (1992) * Evil Empire (1996) * Live & Rare (1998) * The Battle of Los Angeles (1999) * Renegades (2000) * Rare & Unreleased (2001) * Live at the Grand Olympic Auditorium (2003) Скрыть...
Популярные аккорды Rage Against The Machine:
алфавиту | просмотрам | случайно
  • Tuned to Drop D
    
    e|---20---17-------------------------|-------|-------|
    B|-----13---10--20---18--------------|-------|-------|
    G|----------------12---10--21---19---|-------|14^^^^^|
    D|---------------------------12---10-|12^^^^^|-------|
    A|-----------------------------------|-------|-------|
    D|-----------------------------------|-------|-------|…
  • Intro
    G|-----------------|
    D|-----------------|
    A|-----------------|
    E|-2-2-2-2-2-2-2-2-|
    
    Chorus
    G|-------------------|
    D|-------------------|
    A|---------------0-2-|
    E|-0-2-2-0-2-0-2-----|
    
    G|-2------1---------|
    D|------------------|
    A|------------------|
    E|---2--0---2--0-2--|
    Verse
    G|--2-2--4-4--5-5------|
    D|-----------------4--|
    A|---------------------|
    E|---------------------|
    
    Verse…
  • Tuning: D,A,D,G
    
    G|----------------
    D|----------------
    A|----------------
    D|--6b7-0-0-----
    
    Bend the string 1/2 a step so it sounds like you're playing
    the seventh fret, but your just bending the string down.
    Listen…
  • Riff 1 (chorus)
    
    E -----------------------        -------|
    B -----------------------        -------|
    G ---------------------2- x8 then-------|
    D -2--4-4-x-x--2--4-4--2-        --4----|let this ring...
    A -2--4-4-x-x--2--4-4----…
  • E-------------------------------------------------------------------|
    B-------------------------------------------------------------------|
    G-------------------------------------------------------------------|
    D--(15)15---14--------------------15---12-----15---17--19--20--19---|
    A--------------12---(15)---17---------------------------------------|
    E-------------------------------------------------------------------|
    
    E-------------------------------------------------------------------|
    B-------------------------------------------------------------------|
    G--------------------1917----1917----19(17)-171717---1212(12)-------|
    D--17--15--14----1719----1719----1719-------------------------------|
    A-------------------------------------------------------------------|
    E-------------------------------------------------------------------|…
  • regular tuning EADGBe
    
    |-14-12-----------------------------------------------------10-----|
    |-------15-14-12-----------------------------------10h12h14----14v-|
    |----------------14-12-11----11v----------11h12h14-----------------|
    |-------------------------14-----11h12h14--------------------------|
    |------------------------------------------------------------------|
    |------------------------------------------------------------------|…
  • Intro/Solo
    G :----0-2---------|----0---0-------|----------------|----------------|
    D :2-4-------4-2-0-|2-4-------2-0---|----2-4---0-----|--0-2---2-------|
    A :----------------|--------------4-|0-4---------4-2-|4---------4-2-1-|
    E…
  • Standard E
    
              Intro
              E---------------------------------|--------------------------------|
              B---------------------------------|--------------------------------|
              G---------------------------------|--------------------------------|…
  • Drop D (DADGBe)
    
    INTRO/VERSE (CLEAN)
    e|-----------------------------------------------------||
    B|-----------------------------------------------------||
    G|-1414141414141414131313/1616161212121212121212161414-||
    D|-0-0-0-0-0-0-0-0-0-0-0--0-0-0-0-0-0-0-0-0-0-0-0-0-0--||
    A|-0-0-0-0-0-0-0-0-0-0-0--0-0-0-0-0-0-0-0-0-0-0-0-0-0--||
    D|-0-0-0-0-0-0-0-0-0-0-0--0-0-0-0-0-0-0-0-0-0-0-0-0-0--||
    
    CHORUS…
  • Intro/Chorus
    G----------------------------------|
    D----------------------------------|
    A----------------------------------|
    E--0-4-----------0-4-----------0-4-| x2
    
    Pre-Verse
    
    G--9--7--6--4--3-2-0-|
    D--------------------|
    A--------------------|
    E--------------------|
    
    Verse
    G----------------------------------|
    D----------------------------------|
    A----------------------------------|
    E--0-4-----------0-4-----------0-4-|…
  • G---7-7-7-7-7-7-7-7----------------------
    TREMELO PICKING!  Do this for the verses.
    
    G---7-7-7-7-7-7-7-7----------------------
    Still keep tremelo picking but arch your finger so its a richer and 
    deeper sounding harmonic.
    
    D-2-2-----2-2-----2-2--------------------
    A-2-2-----2-2-----2-2--------------------
    E-0-0-----0-0-----0-0--------------------
    With…
  • TUNING: drop d (D,A,D,G,B,E)
    
    
         INTRO:
    
        E|-----------------------|
        B|-------18---------18---|
        G|-------17---------17---|
        D|-------16---------16---|
        A|-------17---------17---|
        D|--0----------0---------|…
  • The Bass Line For the verse:
    
    G--------------------------------|
    D--------------------------------|
    A------7h10--7--6--5--2--1-------|
    E--0------------------------3h5--|
    
    Guitar on Verse:
    
    E--------------------|
    B--------------------|
    G-----0-----------0--|
    D--2-----2--2--2-----|
    A--------------------|
    E--------------------|
    
    Pre…
  • ^=bend 1/2 step
    *Wah-wah, slapback delay, whammy pedal and heavy reverb 
    
    |---------------------------------------------------------
    |---------------------------------------------------------
    |---------------------------------------------------------
    |---------------------------------------------------------
    |---------------------------------------------------------
    |-0-0-0-0-0-0-0-0-0-0-0-0-0-0-0-0-0-0-0-0-0-0-0-0-0-0-0-0-
    |-P.M-----------------------------------------------------|
    *Digitech…
  • Drop D tuning
    h=hammer on
    p=pull off
    ( )=optional fingering
    
    e---------------------------------------
    B---------------------------------------
    G---------------------------------------
    D---------------------------------------
    A-3h5-----3h5----------3h5----3h5-----5-
    D-----0-0-----0-0-3-5------0-0----0-0--2
    
    e----------------------------------------------------
    B----------------------------------------------------
    G----------------------------------------------------
    D-------------------------------------7----5p3---0---
    A-3h5-----3h5----------3h5----3h5---(12)-(10p8)-(5)--
    D-----0-0-----0-0-3-5------0-0----0------------------…
  • bend with whammy bar
    e----------12-----------------
    b-------12-----12-------------
    g----11-------------11--(11)--
    d-12--------------------------
    a-----------------------------
    D-----------------------------
    
    e-------0---------------
    b-----7----7------------
    g---6----------6---(6)--
    d-7---------------------
    a-----------------------
    D-----------------------
    
    e---------------------------------
    b---------------------------------
    g-----------------------*-----*---
    d-0-2-x-x-x-x-3-2---x-2/12----12-
    a-0-2-x-x-x-x-3-2---x-2/12----12-
    D-0-2-x-x-x-x-3-2---x-2/12----12-
    
    e---------------------------------
    b---------------------------------
    g---------------------999-999-999-
    d-0-2-x-x-x-x-3-2---x-------------
    a-0-2-x-x-x-x-3-2---x-777-777-777-
    D-0-2-x-x-x-x-3-2---x-------------
    
    last…
  • Riff A
    ------
     4/4                             5/4
    |-------------------------------|---------------------------------------|
    |-------------------------------|---------------------------------------|
    |-------------------------------|---------------------------------------|
    |-------------------------------|---2-----------------------------------|
    |-2-0-2-3-2-0-------------0-----|-4-----2-1-2-4-2-1-----x-x-x---x---x-x-|
    |---------------2---1-0-----2---|-------------------0---x-x-x---x---x-x-|…
  • Tuning:(E-A-D-G-B-e)
    b=bend (1/4 means bend 1/4 step up)
    p=pull-off
    v=vibrato (whammy bar)
    
    Main Riff:
    Distortion
    e|---------------------------------------------------------------------
    B|---------------------------------------------------7b8-7-5-7-5-------
    G|---------5bј--------------5bј--------------5bј---5-7b8-7-5-7-5-------
    D|-7-7-5-7-----7-7--7-7-5-7-----7-7--7-7-5-7-----7-5-7b8-7-5-7-5-7p5-7-
    A|-0-0-0-0-----0-0--0-0-0-0-----0-0--0-0-0-0-----0-0---------0---0---0-
    E|---------------------------------------------------------------------
    
    
    Verse:…
  • Solo
    e--------------------b17--------------------------
    B-b14-b14-b14-b17---------------------------------
    G-----------------14-------14-13---13-14-13-------
    D-------------------------------------------14----
    A-------------------------------------------------
    E-------------------------------------------------
    
    e----------------------16-17-19-17-16-----------------------
    B----------14-15-17/19----------------19-17-16--------------
    G-13-14-16-------------------------------------19-17-16-b16-
    D-----------------------------------------------------------
    A-----------------------------------------------------------
    E-----------------------------------------------------------
    
    e----------17h19h21----------------------------------------------17-
    B-17h19h21----------17h19h21----------------------------17h19h21----
    G----------------------------18h19h21----------18h19h21-------------
    D-------------------------------------18h19h21----------------------
    A-------------------------------------------------------------------
    E-------------------------------------------------------------------
    
    e----------17---------17h19h21----------------------------------------------17------------17h19h21p19p17-----
    B-17h19h21----17h19h21----------17h19h21----------------------------17h19h21-----17h19h21----------------b21-
    G----------------------------------------18h19h21----------18h19h21------------------------------------------
    D-------------------------------------------------18h19h21---------------------------------------------------
    A------------------------------------------------------------------------------------------------------------
    E------------------------------------------------------------------------------------------------------------
    
    e------------------------------------------------------------------
    B-------------------10------------------------------------------10-
    G----------11------------11----------------11----------------------
    D-----11----------------------------11------------11-------11------
    A-9-9----9----9-9-9----9------9-9-9----9-9----9-9----9-9-9----9----
    E------------------------------------------------------------------
    
    e-------------------------------------------
    B------------------10-----------------------
    G---11--------11--------11---11---10-----b9-
    D--------11---------------------------------
    A-9----9----9----9----9----9----8----8-7----
    E-------------------------------------------
    
    e-----------------------------------------------------------------------------------
    B-------------------------14---------------------------------------15---------------
    G-------------14----------------14---------------------16----------------16---------
    D-------14----------------------------14---------16----------------------------16---
    A-12-12----12----12-12-12----12----12------14-14----14----14-14-14----14----14------
    E-----------------------------------------------------------------------------------
    
    e----------------------------------
    B-------------------------18-------
    G-------------18----------------18-
    D-------18-------------------------
    A-16-16----16----16-16-16----16----
    E----------------------------------…
  • Drop D Tuning (D A D G B E)
    
    E:----------------------------------|
    B:----------------------------------|
    G:----------------------------------|
    A:----------------------------------|
    E:--0-5--3--0-----------3-----0--3--|
    D:--0----------5--3--0-----5--------|…
  • Dropped D tuning (D,A,D,G)
    *Distortion used on bass throughout.
    
    
        Verse Riff                              harm.
    G:-----------------------------------------------------------|
    D:-----------------------------------------------------------|
    A:----------------------------1-2--------------------------1-2--|
    D:--3p0-0-3p0-0-3-r-3p0-0-3-5-----3p0-0-3p0-0----3p0-0-3-5------|…
  • standard tuning
    
    h/= slide from one note to the other but only hit the first note
    
    with echo repeats and whammy pedal
    Verse
    |--------------------------------------------------------
    |--21~~~~~~~~~~~~~~~~~~~~~~~~~~~~~~~~~~~~~~~~~~~~~~~~~~~~
    |--------------------------------------------------------
    |--------------------------------------------------------
    |--------------------------------------------------------
    |--------------------------------------------------------
    
    Pre-Chourus
    |--------------------------------------------------------
    |--------------------------------------------------------
    |--------------------------------------------------------
    |--------------------------------2--------(2)------------
    |--------------------------------2--------(2)------------
    |--------------------------------|___________------------…
  • Drop D tuning (D A D G B e)
    
    KEY
    ~ = sustain
    
    here we go.
    
    INTRO (Tom uses an effect here)
    e|-12-8-12-8-12-8-12-8-13-10-13-10-13-10-13-10-|
    B|---------------------------------------------|
    G|---------------------------------------------|
    D|---------------------------------------------|
    A|---------------------------------------------|
    D|---------------------------------------------|
    
    VERSE
    e|---------------------------------|
    B|---------------------------------|
    G|---------------------------------|
    D|-5/7---5/7---5/7-----------------|
    A|-3/5-0-3/5-0-3/5-0-3/5~~~--------|
    D|-----0-----0-----0-3/5~~~--------|
    
    CHORUS
    e|-----3-5-8~~-3-----|
    B|-3-6-----------3~~-|
    G|-------------------|
    D|-------------------|
    A|-------------------|
    D|-------------------|
    
    ANOTHER…
  • Verse
    G|-------------------------------------------------------------
    D|--------------7-7-5------------------------------------------
    A|7-7-5-7-x-x-x-------7-x-x-x-7-7-5-7-x-x-x---------7----------
    E|------------------------------------------0-3-5-3------------
    
    Chorus
    G|-------------------------------------------------------------
    D|--------------------------------------7-7-5-7-5--------------
    A|7-7-5--------7-7-5--------7-7-5-----------------5-7----------
    E|------5-5-3--------3-3-5--------3-5-5------------------------…
  • Riff A (w/ Wah)
    G|------------
    D|------------
    A|------------
    D|0-/12xxxxx10
    
    Riff B
    G|--------------------------    --------------------------------------------
    D|--------------------------    ---------12-12-12-10-10-10------------------
    A|--------------------------…
  • s  s  s  s  s  s  s  s  s  s  s  s  s  s  s  s      riff a
    G---------------------------------------------------|
    D---7--7--7--7--7--7--7--7--7--7--7--7--7--7--7--7--|
    A---------------------------------------------------|
    E---------------------------------------------------|…
  • Tuning: Drop D (low to high: dadgbe)
    
    w/whammy set 1 octave up
    
    Fig 1.
    e------------------------------------------------------------------
    b------------------------------------------------------------------
    g--14-------14-------14-14-------14-------14-15-------15-------15--
    d-----12-12----12-12-------12-12----12-12-------12-12----12-12-----
    a------------------------------------------------------------------
    d------------------------------------------------------------------
    
    
    e------------------------------------------------------------------
    b------------------------------------------------------------------
    g--15-------15-------15-17-------17-------17-17-------17-------17--
    d-----12-12----12-12-------12-12----12-12-------12-12----12-12-----
    a------------------------------------------------------------------
    d------------------------------------------------------------------…
  • Drop D:
    D A D G B E
    
    < > = harmonic
    
    Intro: w/ muted picking and pick scrapes
    
    fade in w/ vol. knob
    e-----------------------------------------------------------------
    b-----------------------------------------------------------------
    g-----------------------------------------------------------------
    d-11----------10------------9-----------8----------------------7-
    a--9-----------8------------7-----------6-------------------------
    d-----------------------------------------------------------------
    
    Fig.…
  • Verse:
    e--------------
    B--------------
    G-3-6--666-3---
    D-3-6--666-1---
    A-1-4--444-1---
    E--------------
    
    Chorus
    e----------
    B-strum----
    G-3-6-8----
    D-3-6-8----
    A-1-4-6----
    E----------
  • 1st Verse:
    
    I-----------------------------I
    I-----------------------------I
    I-----7-5---------5-5-7-7-7-7-I
    I-0-0--------0--0-------------I
    
    I-----------------------------I
    I-----------------------------I
    I-----7-5---------------------I
    I-0-0--------0--0-7-7-8-8-7-7-I
    
    
    Chorus:
    
    I-----------------------I
    I-----------------------I
    I----7-5-7--------------I
    I-0---------7--8--3-5-3-I
    
    I--------------------I
    I--------------------I
    I----7-5-7-----------I
    I-0---------8--7--3--I
    
    2nd…
  • The song is in regular E A D G B E  Tuning
    
    INTRO
    dont let the d notes ring 
    -------------------------------------------------------
    -------------------------------------------------------
    -------------------------------------------------------
    -----4-----4--------4-----4--------4-------------------
    -------------------------------------------------------
    ---------------2---------------2---------2-------------
    
    part…
  • | /  slide up
    |   slide down
    | h  hammer-on
    | p  pull-off
    | ~  vibrato
    | ^  harmonic
    | x  Mute note
      r  Let ring
      b  bend
      *  Pick scrape
    
    Tuning:standard
    
      intro use a whammy pedal bending down, I have an rp6 so the…
  • Standard Tunning
    
    Intro
    G|-----------------------------------------
    D|-----------------------------------------
    A|7~~----7-0-5-0-5-6-7-7-7-7-7-7-0-5-0-5-6-
    E|-----------------------------------------
    
    G|-----------9-----------------------------
    D|-------9---------------------------------
    A|---7-------------------------------------
    E|0----------------------------------------…
  • intro: play twice - last 3 notes in ( ) play only first time - do not let notes ring
    
    e:---12-----12------12-----12----------10------10---------10---------(10)-------------------------
    B:-------12-----12------12------12--------12------12---------(12)----------(12)------------------
    G:----------------------------------------------------------------------------------------------
    D:----------------------------------------------------------------------------------------------
    A:----------------------------------------------------------------------------------------------
    B:----------------------------------------------------------------------------------------------…
  • All this stuff is screwed up if you don't know wut is means, so:
     = slide the alen wrench on your strings left while holding the fret it says 
    to
    / = slide the alen wrench on your strings right while holding the fret it…
  • Tuning: Drop-D
    Tab:
    
    |--------------------|--------------------|
    |--------------------|--------------------|
    |---11---------------|---11---------------|
    |------12-9H11-8H9---|------12-9H11-8H9---|
    
    Repeat, repeat, repeat...…
  • w  w  w  w     riff a
    G---------------|
    D---------------|
    A---------------|
    E---0--0--0--0--|
                                                                            
    
        s  s  e  s  s  q  e  q     riff b
    G---------r--------r--------|
    D---------e--------e--------|
    A---7--5--s--------s--------|
    E---------t--5--3--t--0--0--|…
  • Drop - D tuning
    
    Whammy pedal set for one octave below with wah - wah and distortion.
    |------------------|
    |------------------|
    |------------------|
    |------------------|Played once at the beginning of the song.
    |------------------|
    |-2-0-2--2-2-------|
    
    Whammy…
  • Standard Tuning
    
    (Fig 1)
    
    G | |-----------|
    D | |-----------|
    A | |-----------|
    E | |--5-5-5-7--|
    
    (Fig 2)
    
    G | |-----------------|
    D | |------5-7-7-7-5--|
    A | |--7-7------------|
    E | |-----------------|
    
    (Fig 3)
    
    G | |----------------------------------------|
    D…
  • E A D G B E
    
    < > = harmonics
    
    Intro: Bass arr. for gtr
    
    Riff A:
    
    g---------------------7----------------------7-
    d---------------------6----------------------6-
    a-7--7-----7-7--7--------7--7-----7-7--7-------
    e------------------0----------------------0----
    
    Verse:…
  • Guitar Intro/Verse
              |---------|---------|---------|---------|
              |---------|---------|---------|---------|
              |--15~~~--|---~~~---|--13~~~--|---~~~---|
              |---------|---------|---------|---------|…
  • Tuning: E A D G B E
    
    Use a digitech Whammy pedal set to harmonize one octave lower and use distortion.
    Intro: 
    E[---------------------------------------------------------]
    B[---------------------------------------------------------]
    G[---------------------------------------------------------]
    D[---------------------------------------------------------]
    A[--------0-0--------0-0------------------------0-0--------]
    E[-0-2-2-0----0-2-2-0----0-2-2-0-2-2-2-0-2-2-2-0-----------]
    
    E[---------------------------------------------------------]
    B[---------------------------------------------------------]
    G[---------------------------------------------------------]
    D[---------------------------------------------------------]
    A[------------0-0--------------------------0-0-------------]
    E[---0-2-2-0-------0-2-2-0-2-2-2-0-2-2-2-0-----------------]
    
    E[---------------------------------------------------------]
    B[---------------------------------------------------------]
    G[---------------------------------------------------------]
    D[---------------------------------------------------------]
    A[------------0-0--------------------------0-0-------------]
    E[---0-2-2-0-------0-2-2-0-2-2-2-0-2-2-2-0-----------------]
    
    E[---------------------------------------------------------]
    B[-------------------------7-------------------------------]
    G[-------------------------6(use…
  • Main:    repeat until end
    G:--------------------------------|
    D:--------------------------------|
    A:-----------0---5---0--------8---|
    E:---0---5---------------10-------|
    
    Alteration of Main:
    G:--------------------------------|
    D:--------------------------------|
    A:-----------0---5---0---5---8----|
    E:---0---5------------------------|
    
    End:…
  • Tuning: Drop D (DADGBE)
    
    e|---------------------------------------------------------------------------|
    B|---------------------------------------------------------------------------|
    G|---------------------------------------------------------------------------|
    D|---------------------------------------------------------------------------|
    A|-5-3-5--3-0-3--------------------------------------------------------------|
    D|---------------5-3-5--3-0-3-5----------------------------------------------|
    
    (Main…
  • ------------------------------------------------------------------------|
    ------------------------------------------------------------------------|
    -------------------------------------------x--x--x--x-------------------|
    -------------------------------------------x--x--x--x-------------------|
    ---------------B…
  • Intro/Chorus
    
    E|--------------------------------------|
    B|--------------------------------------| w/Delay
    G|-----------------------x-x-x-x-x-x-x--|
    D|-----------------------x-x-x-x-x-x-x--|
    A|--10/12--15-15-10/10---x-x-x-x-x-x-x--|
    D|--10/12--15-15-10/12---x-x-x-x-x-x-x--|…
  • Drop D
    intro
    g-----------
    d-----------
    a-7-5-------
    d-----7-5---
    
    
    chorus
    
    g----------------------------
    d----------------------------
    a----------------------------
    d--2--0--2----2--0--2--(5)---
    only play the (5) every few…
  • Tuning: E A D G B E
    
    Intro:
    E[---------------------------------------------------------]
    B[---------------------------------------------------------]
    G[---------------------------------------------------------]
    D[-----11p0-9p0--------------------------------------------]
    A[--------------11p0-10p0-9p0-7p0--------------------------]
    E[-9p0----------------------------7p0-7-9-(feedback)-------]…
  • Riff1
    I-----------------------------------------------I
    I-----------------------------------------------I
    I-----------------------------------------------I
    I-----------------------------------------------I
    I-7----7---6---4---2---7---6---4---2---7--------I
    I-5----5---4---2---0---5---4---2---0---5------7-I
    
    Riff2
    I---------------------------I
    I---------------------------I
    I---------------------------I
    I-----7-5-------------------I
    I---------7-5-3-------------I
    I-5-5-----------7-5-5-7-5-7-I
    
    Riff3
    I---------------I
    I---------------I
    I---------------I
    I-7-------------I
    I-5---5---5---7-I
    I-----3---3---5-I
    
    Riff4
    I------------------------------------------------I
    I------------------------------------------------I
    I-9-9---9-9---9-9---9-9---9-9---9-9---9-9---9-9--I
    I-9-9---9-9---9-9---9-9---9-9---9-9---9-9---9-9--I
    I-7-7---7-7---7-7---7-7---7-7---7-7---7-7---7-7--I
    I-0-0---0-0---0-0---0-0---0-0---0-0---0-0---0-0--I
    
    Riff5
    I---I
    I---I
    I-9-I
    I-9-I
    I-7-I
    I-0-I
    
    Set…
  • Legend:  p - pull off
             h - hammer on
             ^ - bend note
        / or  - slide
            - artificial (pinch) harmonic
             ~ - whammy bar dip
    
    
    ***Alternate Tuning - Drop D (tune your low E string down to a D)
    
    
    Intro/Verse…
  • g:----------------------|----------------
            d:----------------------|----------------
    Intro   a:----------------------|-77777777777-7--
            e:-999999999999999999999|-------------0--
    
            g:-----------------------…
  • Tuning: DADGBE
    
    Verse (With wah pedal)
    
    E|----------------------------------------------------------------------|
    B|----------------------------------------------------------------------|
    G|----------------------------------------------------------------------|
    D|-----------------------------3----------------------------------------|
    A|-3--5--3--5-----3--5--5---3-------3--5--3--5----3--5—-5--3---5--------|
    D|----------------------------------------------------------------------|…
  • intro/verse:
    
    e/---------------------------------------------------|
    B/-----------------------------------4-3-------------|
    G/--3--0------5------------2-------------------------|
    D/---------------3------0---------1------------------|
    A/---------------------------------------------------|
    E/---------------------------------------------------|
    
    chorus:
    
    play…
  • tab: riff 1 (3 times)
    ----------------
    (with delay - medium delay time)
    
    E|----------14------(14)------(14)-|
    B|-------14----(14)------(14)------|
    G|----14---------------------------|
    D|-16------------------------------|
    A|---------------------------------|
    D|---------------------------------|
    
    E|----------16------(16)------(16)-|
    B|-------14----(14)------(14)------|
    G|----14---------------------------|
    D|-16------------------------------|
    A|---------------------------------|
    D|---------------------------------|
    
    E|----------14------(14)------(14)-|
    B|-------14----(14)------(14)------|
    G|----14---------------------------|
    D|-16------------------------------|
    A|---------------------------------|
    D|---------------------------------|
    
    E|----------13------(13)------(13)-|
    B|-------14----(14)------(14)------|
    G|----14---------------------------|
    D|-16------------------------------|
    A|---------------------------------|
    D|---------------------------------|
    
    riff…
  • INTRO/VERSE RIFF:
    
    E-0---0---0---0----0---0---0---0----0---0---0---0----0---0---0---|
    B-0---0---0---0----0---0---0---0----0---0---0---0----0---0---0---|
    G-5---5---5---5----7---7---7---7----5---5---5---5----7---7---7---|
    D-7-7-7-7-7-7-7-7--5-5-5-5-5-5-5-5--3-3-3-3-3-3-3-3--5-5-5-5-5-5-|
    A---0---0---0---0----0---0---0---0----0---0---0---0----0---0---0-|
    E----------------------------------------------------------------|
    
    E-0--------------------------------------------------------------|
    B-0--------------------------------------------------------------|
    G-7--------------------------------------------------------------|
    D-5-5------------------------------------------------------------|
    A---0------------------------------------------------------------|
    E----------------------------------------------------------------|
    REPEAT…
  • q  q  q  q  q  q  q  q     riff a
    G---------------------------|
    D---------------------------|
    A---5--5--5--5--5--5--5--5--|
    D---------------------------|…
  • Drop D:
    D A D G B E
    
    Intro: D5 fade in
    (in the recording and live Tom twists his G string peg up and down
    in order to get the sound, this is the way i play it, to compensate for both
    guitar parts)
    
    x4
    e-----------------------------------------------------------------
    b-----------------------------------------------------------------
    g-7-7-7-7-----7-7-7-7-7---7-7-7-7-7-7-7-7-----7-7-7-7-7---7-7-7-7-
    d-6-6-6-6-----6-6-6-6-6---6-6-6-6-7-7-7-7-----7-7-7-7-7---7-7-7-7-
    a-5-5-5-5-----5-5-5-5-5---5-5-5-5-5-5-5-5-----5-5-5-5-5---5-5-5-5-
    d-----------------------------------------------------------------
    
    then
    
    e-----------------------------------------------------------------
    b---------------------------------5-------------------------------
    g---------------------------------0-------------------------------
    d-0-------------------------------8-------------------------------
    a-0---------------------------------------------------------------
    d-0---------------------------------------------------------------
    
    e---------------------------------10--10--10--10--10--10---10-----
    b---------------------------------13b-13b-13b-13b-13b-13b--13b----
    g-------------------------------------12b-12b---------12b--12b----
    d-0---------------------------------------------------------------
    a-0---------------------------------------------------------------
    d-0---------------------------------------------------------------
    
    Main…
  • Normal Tuning.
    
              Intro - Same chords as the verse but with pull offs and also
              sort of gliss that I couldn't figure out. :-(
    
              Verse
                 A                        D
              |------------------------------------------------|…
  • Drop-D tuning (6=D)
    
    Riff A (intro/interlude)
    ------------------------
    
    |---------------------------------|---------------------------------|  
    |---------------------------------|---------------------------------|
    |---------------------------------|---------------------------------|
    |---------------------------3-----|---------------------------------|
    |-3-4-5-----------3---5-3-5-------|-3-4-5-----------3---5-2-5-------|
    |-------0-3---5-------------------|-------0-3---5-------------0-----|
    
    Riff…
  • Bass tab.
    
     
    G---------------------------------------------------------
    D---------------------------------------------------------
    A-------------------5-7-5-------------------------------
    D--2--5---2-2-2----------------------------------------…
  • Dropped D tuning
    
    (8)=harmonic at the 8th fret
    
    |----------
    |--10------
    |--x-------
    |--12--(8)-   repeated throughout the verses.
    |----------
    |----------
    
    |------------------
    |------------------
    |------------------
    |------------------…
Наверх