Аккорды «Rainbow»

Rainbow
Rainbow («Рэ́йнбоу» — русск. Радуга) — британско-американская группа, образованная в 1975 году гитаристом Ричи Блэкмором и музыкантами группы Elf во главе с вокалистом Ронни Джеймсом Дио, чьё творчество оставило большой след в развитии хард-рока и хэви-метал. В дальнейшем Ричи Блэкмор как лидер группы многократно менял её участников. До 1983 года было выпущено восемь пластинок, каждая — с разным составом. При том, что стиль Rainbow также эволюционировал, многие продолжали воспринимать её как — то… Читать полностью... Rainbow («Рэ́йнбоу» — русск. Радуга) — британско-американская группа, образованная в 1975 году гитаристом Ричи Блэкмором и музыкантами группы Elf во главе с вокалистом Ронни Джеймсом Дио, чьё творчество оставило большой след в развитии хард-рока и хэви-метал. В дальнейшем Ричи Блэкмор как лидер группы многократно менял её участников. До 1983 года было выпущено восемь пластинок, каждая — с разным составом. При том, что стиль Rainbow также эволюционировал, многие продолжали воспринимать её как — то ли альтернативу, то ли замену Deep Purple, особенно после того, как последние в 1976 году распались, и к Rainbow два года спустя присоединился бас-гитарист Роджер Гловер, а так же на концертах иногда исполнялся материал "пурпурных". В апреле 1984 года Rainbow прекратили существование вследствие ухода Блэкмора и Гловера в возрождённый Deep Purple. В 1994 году Блэкмор, покинув Deep Purple, возродил Rainbow с новыми музыкантами, но, выпустив один альбом и не сумев повторить прежних успехов, в конце 1997 года группа (как тогда сообщалось) «приостановила» свою деятельность. Самыми известными песнями Rainbow остаются «Stargazer», «Man on the Silver Mountain», «Long Live Rock’n’Roll», «Kill the King». Смело Rainbow можно назвать одной из лучших групп в хард-роке 1 История 1.1 Предыстория 1.2 Эра Дио 1.3 От металлического рока к коммерческому. Грэм Боннэт 1.4 Эра Тёрнера 1.5 Новые Rainbow 2 Музыка 3 Составы 4 Дискография История Предыстория Группа Rainbow образовалась в 1975 году, когда гитарист Deep Purple Ричи Блэкмор объединил творческие усилия с квартетом музыкантов из американской группы Elf, основанной Ронни Дио. Музыканты Elf и Deep Purple были знакомы с 1972 года, когда Роджер Гловер и Ян Пэйс, побывав на концерте этой группы в одном из клубов Нью-Йорка, пришли в восторг от услышанного. Гловер и Пэйс стали продюсерами дебютного альбома Elf, а также предложили группе сыграть на разогреве у Deep Purple во время их американского тура. В 1973 году Elf по совету коллег перебрались в Великобританию, где в то время функционировали лучшие студии и крупнейшие лейблы, специализировавшиеся на хард-роке. Группа записала ещё два альбома, вновь с Роджером Гловером в качестве продюсера. К 1974 году Ричи Блэкмор постепенно разочаровался в Deep Purple. Причиной тому была сложившаяся обстановка в группе; наметившийся в её творчестве крен к фанку и соул обусловил нараставший разлад между Блэкмором с одной стороны и Ковердэйлом и Хьюзом — с другой. Гитарист Deep Purple о сложившейся ситуации говорил так: Я не мог вынести записи ещё одного альбома. Stormbringer был полной ерундой. Мы начали погружаться в эту фанк-музыку, чему я не мог воспрепятствовать. Мне очень это не нравилось. И я сказал: послушайте, я ухожу, не хочу разваливать группу, но с меня хватит. Из команды мы превратились в пятёрку эгоцентричных маньяков. Духовно я ушёл из группы ещё годом ранее [официального ухода]. В этот альбом Ричи Блэкмор хотел включить песню Стива Хэммонда «Black Sheep of the Family», но коллеги, прежде всего, Джон Лорд и Иэн Пэйс, воспротивились этому, поскольку не хотели играть чужой материал. Тогда Блэкмор решил записать эту песню со сторонними музыкантами и выпустить её в качестве сингла. Для записи сингла Блэкмор пригласил Ронни Дио, Микки Ли Соула, Крэйга Грабера и Гэри Дрискола — музыкантов группы Elf, а также виолончелиста Electric Light Orchestra Хью Макдауэлла. На вторую сторону сорокапятки Блэкмор планировал поместить собственную композицию. Текст для неё он, связавшись с Дио по телефону, попросил того написать уже к следующему дню. Дио справился с заданием, и композиция получила название «Sixteenth Century Greensleeves». Запись началась 12 декабря 1974 года, в свободный от концертов день в студии «Tampa Bay» во Флориде. Сингл так и не увидел свет, но Блэкмору понравилось работать с этими музыкантами. Более всего Блэкмор был доволен голосом Дио: "Когда я впервые услышал, как поёт Ронни, у меня мурашки по спине забегали. Мне не требовалось ничего ему объяснять. Он пел так, как было нужно". После этого Блэкмор предложил Дио место вокалиста в своей будущей группе. Ронни согласился, но, вместе с тем, ему не хотелось расставаться со своей группой. Тогда он убедил Блэкмора взять в группу Соула, Грабера и Дрискола, которые участвовали в записи сингла. Примечательно, что Роджер Гловер тоже предлагал Дио петь в своём проекте. Ронни сперва дал согласие, но получив приглашение от Блэкмора, изменил решение. Эра Дио Название группы, по словам Блэкмора, возникло когда они с Дио выпивали в лос-анджелесском баре «Rainbow Bar & Grill». Дио спросил Блэкмора, как будет называться группа. Блэкмор просто указал на вывеску: «Rainbow». С 20 февраля по 14 марта 1975 года в мюнхенской студии «Musicland» в свободное от участия в Deep Purple время Блэкмор с новой группой и продюсером Мартином Бёрчем приступил к записи дебютного альбома. Вокалист Дио выступил здесь также и в качестве автора текстов и мелодий. В записи альбома приняла участие и бэк-вокалистка Шошанна. Оформление обложки было поручено художнику с киностудии Уолта Диснэя Дэвиду Виллардсону. В ходе этой студийной работы Блэкмор пришёл к окончательному решению покинуть Deep Purple: "Имя Deep Purple в какой-то момент начало значить очень много, мы зарабатывали сумасшедшие деньги. Если б я остался, то, наверное, стал бы миллионером. Да, приятно видеть, как к тебе несут набитые деньгами мешки, но когда ты занимаешься заколачиванием денег 6 лет подряд, с тебя довольно! Нужно быть честным и сказать себе: ты должен сделать что-либо другое. Вполне вероятно, оно не будет таким же коммерчески успешным, но это неважно. Я хочу быть самим собой. Денег я уже заработал достаточно — теперь поиграю в своё удовольствие. Получится у меня это или нет — не имеет значения". Об уходе Блэкмора было официально объявлено 21 июня 1975 года. Альбом, записанный в феврале-марте, вышел в августе 1975 года под названием Ritchie Blackmore's Rainbow. Он занял 11-е место в Британии и 30-е — в США. Но ещё до того, как вышла пластинка, Блэкмор уволил басиста Крэйга Грабера, а вместо него пригласил шотландского бас-гитариста Джимми Бэйна. Его порекомендовал барабанщик Мики Мунро, который когда-то был участником недолговечного проекта Блэкмора Mandrake Root, а на тот момент играл с Бэйном в группе Harlot. Блэкмор пошёл на концерт Harlot и после него предложил басисту стать участником своей группы. Прослушивание было символическим: Блэкмор сыграл два гитарных фрагмента — второй более быстрый, чем первый, — Бэйн повторил их на басу и тут же был принят. В скором времени были уволены Дрискол, а за ним и Соул. Мики Ли Соул вспоминал: "Мы переехали в Малибу, где жил Ричи, и начали репетировать. Но он сразу же захотел поменять бас-гитариста. Причина этого решения лежала не в музыкальной плоскости, это была прихоть Ричи, что-то личное. Итак, басист был заменён Джимми Бэйном. Мы ещё немного порепетировали, потом Ричи захотел сменить барабанщика. Дрискол был моим лучшим другом, мы много пережили вместе, к тому же он был классным ударником. Его стиль был в большей мере ориентирован на американский ритм-энд-блюз, а Ричи такая манера нравилась. Так что я был очень разочарован его решением, и это было одной из причин, побудивших меня уйти из группы". Ричи Блэкмор впоследствии утверждал, что для Дрискола было обычным делом «терять ритм и находить его вновь». По словам Дио, его бывшие коллеги по Elf были уволены потому, что — будучи хорошими музыкантами, на сцене выглядели не лучшим образом. Блэкмор и Дио решили, что они — не те, кто нужен им для дальнейшего развития и для записи очередного альбома. Найти барабанщика было сложнее. Блэкмор хотел найти не просто технически грамотного музыканта, но настоящего мастера. Из тринадцати прослушанных кандидатов ни один гитариста не устроил. Уже почти отчаявшись найти достойную кандидатуру, Ричи Блэкмор вспомнил про Кози Пауэлла, которого видел в 1972 году на его последнем концерте в составе Jeff Beck Group, и велел менеджеру связаться с ним, чтобы пригласить на прослушивание. Кози Пауэлл вылетел в Лос-Анджелес, где проходили репетиции: "Там была толпа народу: члены группы и Бог весть кто, наверное, половина Голливуда. Мне пришлось играть на ударной установке, которую я никогда до этого не видел. На меня пялилась сотня людей, словно я был золотым мальчиком, которого выписали из Англии, заплатив кучу денег. Ричи сразу же меня спросил, могу ли я сыграть shuffle. И я начал играть. Через 20 минут мне сказали, что я принят на работу".Джимии Бэйн порекомендовал Блэкмору своего знакомого клавишника Тони Кэйри. Тот был принят, и в окончательно сформированном составе группа отправилось в своё первое крупномасштабное турне. По замыслу Ричи Блэкмора концерты Rainbow должна была украшать огромная радуга, подобная той, что была у Deep Purple на выступлении в Калифорнии. Но в отличие от той радуги, деревянной с нарисованными полосами, новая была изготовлена из металлических конструкций и могла менять цвета. На её установку требовалось 7 часов. Дио вспоминал, что радуга эта постоянно служила для него источником беспокойства: он опасался, что она могла на него упасть. Второй состав (Бэйн, Пауэл, Дио, Блэкмор, Кэйри) Примечательной чертой Rainbow были неформальные отношения между участниками группы. Инициатором таких отношений был Блэкмор, пристрастившийся к своеобразным шуткам и розыгрышам ещё во времена Deep Purple. Джимми Бэйн: "Ты мог вернуться в отель и обнаружить, что из комнаты всё «ушло». В номере не было ничего, кроме лампочки, потому что всё это было у тебя в ванной. Они могли часами выманивать тебя из комнаты, чтобы потом сделать тебе такой сюрприз. А пару раз нас просто выкидывали из отелей среди ночи потому, что кое-кто из парней набедокурил. Я помню, в Германии Кози забрался по стенке отеля наверх. По-моему, он в то время был на лечении … и у него был огнетушитель, который он и применил. Но к сожалению, этажи он перепутал и напустил пены в комнату какого-то немецкого торговца. Тогда нас всех подняли среди ночи и вышвырнули из отеля. Да много всяких сумасшедших вещей было! Ты мог проснуться от того, что кто-то разносит твою дверь топором! Это было безумие, но на наши выступления или записи оно никак не влияло". Первый концерт должен был состояться 5 ноября 1975 года в филадельфийском зале «Syria Mosque», но его пришлось перенести: выяснилось, что электрическая радуга не готова. Турне началось 10 ноября в Монреале, в зале «Forum Concert Bowl». Шоу открывалось песней «Temple of the King». Далее шли «Do You Close Your Еyes», «Self-Portrait», «Sixteenth Century Greensleeves», «Сatch the Rainbow», «Man on the Silver Mountain», «Stargazer» и «Light in the Black». Завершала концерт «Still I’m Sad» (с текстом, в отличие от альбомной версии). К концу американского тура «Temple of the King» и «Light in the Black» были исключены из репертуара, их заменила «Mistreated». Турне, состоявшее из 20-ти концертов завершились в американском городе Тампа, после чего музыканты разъехались на рождественские каникулы. В феврале 1976 года музыканты с продюсером Мартином Бёрчем собрались в мюнхенской студии Musicland. На запись следующего, второго по счёту студийного альбома Rising понадобилось всего 10 дней. Музыканты играли столь чётко и слажено, что большинство композиций было записано за 2-3 дубля, «Light in the Black» удалась с первой попытки, а в работе над «Stargazer» принял участие Мюнхенский симфонический оркестр. Рисунок, использованный для оформления обложки альбома, был выполнен художником Кеном Келли. Альбом поступил в продажу в мае того же года, в чартах Великобритании поднялся до 11-й позиции, в США — до 40-й. и в течение следующих нескольких лет приобрёл статус классического в хард-роке. В 1981 году Rising возглавил читательский список величайших хэви-метал-альбомов всех времен, составленный журналом Kerrang!. Запланированные выступления на Восточном побережье и Среднем Западе США не состоялись, и первым концертом тура стало шоу 6 июня 1976 года. Начиная с этого тура, все концерты группы открывались словами Джуди Гарленд из фильма Волшебник страны Оз: «Тотошка, мне кажется, мы больше не в Канзасе! Мы, должно быть, над радугой!» (англ. «Toto: I’ve a feeling we’re not in Kansas anymore. We must be over the rainbow!»). Затем шла новая песня группы «Kill the King», далее — «Sixteenth Century Greensleeves», «Catch the Rainbow», «Man on the Silver Mountain», «Stargazer», «Still I’m Sad». Неотъемлемой частью концертов было соло Кози Пауэлла на ударных, исполнявшееся в сопровождении записанной на плёнку «Увертюры 1812 год» Петра Ильича Чайковского в исполнении симфонического оркестра Миннеаполиса. Концерты шли с успехом, поэтому было принято решение записать ряд концертов на плёнку и выпустить сборник лучших фрагментов живых вступлений группы. Мартин Бёрч записал осенние концерты в Германии. В начале декабря Rainbow прилетели в Японию, где её встретили очень тепло. Все девять концертов прошли с аншлагом, поэтому Бёрч также записал и японские концерты. Над сведением альбома он работал с марта по май следующего года. Композиции, вошедшие в него, подверглись основательному монтажу, при котором шла склейка версий из разных выступлений. По завершении турне Rainbow должны были уйти на рождественские каникулы и собраться после них для записи нового альбома. Но Ричи Блэкмор вновь задумал обновить состав группы, сменив басиста и клавишника. 3 января 1977 года менеджер Брюс Пэйн позвонил Бэйну и сказал, что в его услугах больше не нуждаются. Объяснялось это тем, что Бэйн начал употреблять наркотики перед выходом на сцену. Ричи Блэкмор: "Некоторые люди, не будем их называть, принимали наркотики и спали на ходу. Я их поувольнял. Знаете, как они на это реагировали? Оборачивались и спрашивали: «Как ты мог так поступить со мной?». Процедуру уведомления музыкантов об увольнении Блэкмор поручал менеджеру, поскольку считал, что подобную неприятную работу должен выполнять именно он. Вместо Бэйна Блэкмор пригласил уволенного ранее Крэйга Грабера. Грабер около месяца репетировал с Rainbow, но в группе не закрепился, поскольку Блэкмор решил что лучшей кандидатурой будет Марк Кларк. Ричи позвонил ему как раз в тот момент, когда тот уходил из группы Natural Gas, и сразу же задал вопрос: «Хочешь присоединиться к Rainbow»? Кларк был ошарашен, но через минуту сказал «да». Поскольку к этому времени Блэкмору так и не удалось найти замену Кэйри, увольнение было отложено на неопределённый срок. Но отношение Блэкмора к нему становилось всё более и более прохладным. Репетиции проходили в Лос-Анджелесе. Оттуда группа Rainbow прилетела в студию «Shateau d’Herouville», где был записан предыдущий альбом. Туда же через некоторое время прилетел и Мартин Бёрч, закончивший работу над сведением концертного альбома. Но в этот раз запись шла очень вяло, и интереса к ней никто не испытывал. Ричи Блэкмор: "По прошествии шести недель мы обнаружили, что практически ничего не сделали. По сути дела, мы по-настоящему бездельничали, и если получалось найти хороший повод уклониться от записи, мы его использовали. Думаю, тот факт, что мы играли в футбол в течение десяти дней подряд, не способствовал работе". Ещё одним развлечением для музыкантов были упоминавшиеся ранее блэкморовские «шуточки». Объектом их мог стать любой, но «мальчиком для битья» оказался Тони Кэйри. Причиной тому было всё более критическое отношение к нему Блэкмора. По словам Кози Пауэла, Кэйри был очень хорошим музыкантом, но слишком высокомерным и напыщенным, к тому же не играл в футбол, что ещё больше отдаляло его от остальных. Записываться Кэйри стал тоже отдельно ото всех. Музыканты просыпались обычно около 3-х часов пополудни и работали в студии до раннего утра. Кэйри в это время уже спал. Один раз он зашёл в студию со стаканом виски в руке и синтезатором под мышкой. Вдруг он поскользнулся и содержимое стакана вылилось на панель управления, выведя её из строя. Блэкмор разозлился, и Кэйри был уволен. Кроме того испортились отношения Блэкмора с Кларком, которому, как вспоминал Кози Пауэлл, не удавалось сосредоточится на игре. Едва загоралась красная лампочка и начиналась запись, как он кричал: «Стоп, стоп, стоп! Я не могу попасть в такт». Блэкмору это вскоре надоело, и он выставил Кларка. Ссора между ними длилась десять лет, но в итоге Кларк и Блэкмор помирились. Группа оказалась в сложном положении, поскольку Бэйн отказался возвращаться в группу, Блэкмору приходилось самому брать в руки бас-гитару. К тому времени группа находилась в студии уже более двух месяцев. К июлю 1977 года основная часть работы была закончена. Тогда же вышел двойной концертный альбом On Stage. А вскоре Блэкмор подыскал нового бас-гитариста. Им стал австралийский музыкант Боб Дэйсли. Найти клавишника помог случай: однажды Блэкмор услышал по радио соло на клавишных, которое ему очень понравилось. Выяснилось, что исполнял его канадский клавишник Дэвид Стоун, который играл в группе Symphonic Slam. Таким образом новый состав был полностью укомплектован и, начав в июле репетиции, отправился в сентябре на гастроли, отложив работу над альбомом на конец года. Начавшееся турне было омрачено неприятностями. Первый концерт, который должен был пройти 23 сентября в Хельсинки, был отменён из-за задержки аппаратуры на таможне. 28 сентября концерт в Норвегии начался с полуторачасовой задержкой, поскольку «радугу» не успели привезти из Осло, где группа выступала накануне. Во время концерта вспыхнула драка, в которую были вовлечены техники и музыканты Rainbow. Но самые большие проблемы ожидали группу в Вене. Во время концерта Блэкмор увидел, что охранник начал бить одного из зрителей (двенадцатилетнюю девочку). Ричи вмешался и ударил стража порядка, да так сильно, что сломал ему челюсть. Ричи Блэкмор попал за решётку: Охрана вызвала полицию, и, когда те появились, в мгновение ока все выходы были заблокированы. Во время исполнения на бис я соскочил со сцены и запрыгнул в большой чемодан, предварительно приготовленный для меня роуди. Наши техники сказали полиции, что я побежал на железнодорожную станцию, и преследователи умчались туда на мотоциклах. Роуди выкатили меня на улицу, но как только они положили чемодан в грузовик, два полисмена захотели ознакомится с его содержимым. Через несколько секунд я выиграл прекрасную ночёвку с «полным пансионом». Меня продержали целых четыре дня. Я чувствовал себя военнопленным. По словам Дио, Ричи очень близко к сердцу принял своё пребывание в тюрьме и был сильно подавлен. Выпустили его только после уплаты штрафа в размере 5000 фунтов стерлингов. Отыграв в ходе тура около сорока концертов, музыканты исполняли в основном те же песни, что и во время предыдущего, только «Stargazer» был заменён композицией «Long Live Rock’n’Roll». Завершающий концерт состоялся 22 ноября в Кардиффе. После недолгого перерыва, группа вновь отправилась в замок «Herouville», где продолжила работу над материалом нового альбома. Здесь была записана «Gates Of Babylon», которую Блэкмор считает одной из лучших своих песен. Также была по-новому записана баллада «Rainbow Eyes», в чём группе помог баварский струнный ансамбль. В январе Rainbow вылетели на гастроли — сперва в Японию, затем в феврале в США. После этого музыканты взяли паузу. Песня «Long Live Rock’n’Roll» была выпущена синглом в марте 1978 года, а альбом Long Live Rock’n’Roll вышел в апреле. В Британии альбом подскочил до 7-го места, но в США не поднялся выше 89-й позиции, что для Rainbow было равносильно провалу. 1 978 год оказался для Rainbow особенно тяжёлым. Звукозаписывающая компания Polydor, угрожая отказом продлить подходивший к концу контракт, стала требовать от группы записывать более коммерческую музыку и выпускать больше студийных альбомов, считая общемировые тиражи недостаточными. От электрической радуги пришлось отказаться. Также, по настоянию Polydor, Rainbow начали выступать на разогреве у других групп: сначала Foghat, позднее — Reo Speedwagon. Делалось это для того, чтобы выжать максимум денег из концертов. Музыкантов могло утешить лишь то, что они пользовались намного бо́льшим успехом, чем те, кого они предваряли. Позже по требованию Polydor было урезано время выступления до 45-ти минут: в новый сет вошли «Kill the King», «Mistreated», «Long Live Rock’n’roll», «Man on the Silver Mountain», «Still I’m Sad» на бис (причём впоследствии и на бис выходить музыкантам было запрещено). Брюсу Пэйну удалось убедить лейбл продлить контракт, но пришлось и дать твёрдые гарантии, что группа будет играть именно коммерческую музыку. Музыканты чувствовали усталость, к тому же наметились разногласия между Блэкмором и Дио. Уволив Дэйсли, Блэкмор принял решение уволить и Дио. Менеджер группы Брюс Пэйн позвонил последнему и сообщил, что в его услугах больше не нуждаются. При том, что отношения его с Блэкмором были на тот момент далеко не самыми лучшими, для Дио это явилось полной неожиданностью. Ошеломлённый Дио позвонил Кози Пауэлу, на что услышал: «Очень жаль, но так уж вышло…» Блэкмор неохотно комментировал своё решение и на вопросы журналистов отвечал уклончиво. Отвечая на вопрос о причинах увольнения певца, которым ещё год назад Блэкмор был вполне доволен, последний говорил, что Дио «всегда поёт одинаково». Кроме того, лидер группы выражал недовольство женой Дио — Вэнди, которая имела на того «слишком большое влияние»… Лишь однажды гитарист признался, что не Дио покинул Rainbow, но Rainbow покинули Дио. Более внятно причину увольнения Дио объяснил Кози Пауэлл: Ронни единственный, кого нужно в этом винить. Мы все думали, что он был уже не заинтересован в том, что мы делали, и не вносил ничего нового, а значит, был бесполезен для дальнейшего развития группы. Тогда мы начали обсуждать это с ним и выяснили, что его идеи совершенно не совпадают с нашими. Более того, они серьёзно расходились. Тогда он покинул нас и присоединился к Black Sabbath. Об уходе Дио официально объявили в январе 1979 года. От металлического рока к коммерческому. Грэм Боннэт В ноябре 1978 года в группе появился новый басист — шотландский музыкант Джэк Грин[5], игравший ранее в T. Rex и Pretty Things. Кроме того, Блэкмор привлёк к сотрудничеству своего бывшего коллегу по Deep Purple Роджера Гловера. Предполагалось, что Роджер станет продюсером следующего альбома Rainbow, но вскоре Блэкмор предложил ему стать бас-гитаристом группы. Роджер Гловер: Я больше не хотел играть в группах, когда покинул Deep Purple. Когда я пришёл в Rainbow, то подумал: «Боже, я же не собираюсь снова это делать!» Но, увидев играющего Ричи, я сдался… Хотя у Rainbow были потрясающие живые выступления, столь же потрясающе малыми были продажи их записей. Rainbow была обречена. Хотя Полидор продавал немало записей Ричи, этого не хватило, чтоб удовлетворить его. А посему жить группе больше не полагалось. Моей задачей, чтобы спасти Rainbow, было придать музыке хоть немного коммерческую направленность, больше мелодичности и поменьше агрессии, демонов, драконов, ведьм и прочей нечисти. Больше простых вещей вроде секса, секса и ещё раз секса. Так как Гловер принял приглашение Блэкмора, пребывание Грина в Rainbow ограничилось тремя неделями. Тем не менее, Грин и Блэкмор сохранили дружеские отношения, а последний даже сыграл на сольном альбоме Грина Humanesque в песне «I Сall, No Answer». Ещё раньше группу покинул Дэвид Стоун и на его место по рекомендации Кози Пауэла был приглашён Дон Эйри. Кози Пауэлл позвонил ему и попросил приехать в Нью-Йорк на прослушивание. Так Эйри оказался дома у Блэкмора. Для начала Эйри исполнял музыку Баха, а затем они устроили джем-сейшн, в результате которого появилась композиция «Difficult To Cure». После этого Эйри пригласили в студию, где шла работа над музыкой для следующего альбома. Накануне Рождества, ему было предложено место в Rainbow. В то же время проходили прослушивания кандидатов на роль вокалиста. Ни одна кандидатура Блэкмора не устраивала. И тогда Блэкмор решил предложить место вокалиста Иэну Гиллану. Ричи Блэкмор явился домой к Гиллану рождественским вечером, не зная, как так тот себя поведёт, ведь в последний год совместной работы в Deep Purple у них были очень напряжённые отношения. Но Гиллан встретил гитариста вполне миролюбиво. Они выпили, Блэкмор предложил Гиллану присоединиться к Rainbow и услышал отказ. Более того, выяснилось, что Гиллан сам подбирает музыкантов для своей новой группы. Он предложил Блэкмору вакансию гитариста — и тот ответил отказом. В знак примирения Блэкмор 27 декабря сыграл вместе с Гилланом в качестве приглашённого музыканта в клубе Marquee, после чего повторил приглашение и — снова получил вежливый отказ. Блэкмору ничего не оставалось кроме как положиться на случай. Работа над альбомом продолжалась без вокалиста. Роджер Гловер выступил здесь не только как бас-гитарист и продюсер, но и как автор текстов и мелодий. К тому времени количество отбракованных кандидатов на роль вокалиста перевалило за пятьдесят. Ричи Блэкмор: Были неплохие парни, но никто меня не впечатлил, пока не подвернулся Грэм [Бонэт]. Мы всех перепробовали, кто хоть маленько походил на искомое. Как-то я спросил у Роджера, что случилось с тем отличным вокалистом из Marbles? Боннэт в то время занимался записью сольного альбома и нечего не знал про Rainbow. Ему оплатили перелёт до Франции, и в той же студии «Chateau Pelly De Cornfeld», где на тот момент шла запись альбома, устроили прослушивание. Ричи Блэкмор попросил Боннэта спеть «Mistreated», остался доволен исполнением и предложил ему место вокалиста. В апреле, когда все юридические тонкости были улажены, Грэм Боннэт стал полноправным участником Rainbow. Новому певцу было предложено наложить партию вокала на уже записанный материал. В случае с песней «All Night Long» Блэкмор сыграл последовательность аккордов и попросил спеть в той же манере, как в песне Rolling Stones «Out Of Time». Также было и с «Lost In Hollywood», где Блэкмор просил спеть a-la Литл Ричард. Боннэт вспоминал, что старый французский за́мок, в котором располагалась студия, внушал ему страх. Дошло до того, что он записывал вокальные партии в туалете или вне замка — в саду. В конце концов просьбы вокалиста были удовлетоврены и дописывать партии вокала он отправился уже в американскую студию. Ричи Блэкмор: Грэм был странным парнем. В Дании мы спросили его, как он себя чувствует. «Я чувствую себя немного странно, не знаю почему, мне немного нехорошо». Колин Харт говорит: «Ты ел?» и он ответил: «Ах да. Я голоден». Мы говорили ему: «Грэм, у тебя слишком короткие волосы. Людям, которые слушают нас, нравятся длинные волосы. Ты выглядишь как певец из кабаре, не мог бы ты отпустить волосы». К тому времени, когда мы играли в Ратуше Ньюкасла, его волосы уже доходили до воротника. Он только начинал выглядеть как надо. Другими словами, мы выглядели смешно, выходя на сцену с вокалистом, у которого такие короткие волосы, ведь публика это ненавидела. Мы поставили караул у его двери, но, конечно же, он выпрыгнул через окно и сделал стрижку. Когда мы вышли на сцену, я, стоя у него за спиной, смотрел на его остриженную по-военному голову. Я был близок к тому, чтобы взять мою гитару и дать ему по башке. Все песни, над которыми велась работа, кроме «Since You Been Gone», имели рабочие названия. «Bad Girl» называлась «Stone», «Eyes Of The World» — «Mars», «No Time To Lose» — «Sparks Don’t Need A Fire» и в тексте отличалась от конечного варианта. Боннэт также принимал участие в работе над текстами, написанным Гловером, но ни в одной композиции не был отмечен как соавтор. Этот факт дал впоследствии повод говорить, что Боннэт просто не способен сочинять тексты и мелодии. Кози Пауэлл, с этим не соглашаясь, утверждал, что Боннэт написал бо́льшую часть «All Night Long». К концу июля новый альбом Rainbow, получивший название Down To Earth, поступил в продажу. Название альбома словно бы указывало на то, что группа обратилась к более «земным» вещам: «рок-н-роллу, сексу и пьянкам». Дио такие перемены понравиться не могли. Не по душе ему пришлось и пение Боннэта. Он считал, что что «Rainbow стали звучать как обычная рок-группа», и что «вся магия испарилась». Альбом занял 6-ю позицию в Великобритании и 66-ю — в США. Синглом была выпущена «Since You Been Gone», композиция Раса Бэлларда. На вторую сторону сорокапятки поместили «Bad Girl», в альбом не вошедшую. Сингл достиг 6-го места в чартах Великобритании и 57-го — в США. Т урне по Европе, запланированное вначале на август, началось в сентябре. В ходе него Rainbow играли с группой Blue Öyster Cult. Отыграв европейское турне, группа начала американское, продолжавшееся до конца года. 17 января 1980 года начался тур по Скандинавии и Европе. Первый концерт был сыгран в шведском Гётеборге. Rainbow дали концерты в Швеции, Дании, Германии, Франции, Бельгии, Голландии и Швейцарии. Последний из них был отыгран 16 февраля в мюнхенском Olympianhalle. А спустя три дня группа сыграла первый в этом составе концерт в Англии, в городе Ньюкасл. 29 февраля после выступления на арене Уэмбли, Блэкмор, в отличие от остальных музыкантов, отказался выйти на бис. В итоге прямо на сцене между гитаристом и его коллегами произошла стычка. Поскольку на этом концерт и завершился, раздосадованные зрители принялись швырять на сцену сиденья. В итоге было арестовано 10 человек, а ущерб, нанесённый залу, составил 10 000 фунтов стерлингов. По словам самого Блэкмора, он почувствовал в тот вечер, что не сможет выйти к публике, и вообще, ощутил отвращение ко всему, что делал. Британский тур завершился 8 марта в лондонском Rainbow Theatre. В марте вышел сингл «All Night Long» (с инструментальной композицией «Weiss Heim», записанной 19 января 1980 года, на обороте) и достиг пятой позиции в UK Singles Chart. С марта по апрель музыканты отдыхали. 8 мая началось турне по Японии. Первое шоу состоялось на токийской арене Budokan. Всего в этом зале было сыграно 3 концерта, в ходе которых группа исполнила также и композицию Джерри Гоффина и Кэрол Кинг «Will You Love Me Tomorrow?», которая уже выходила в 1977 году на сольном альбома Боннэта. Песня исполнялась и на всех последующих концертах с участием вокалиста; её даже планировалось выпустить в качестве сингла. Турне завершилось 15 мая концертом в Осаке. После японских концертов музыканты вернулись домой, чтобы отдохнуть и подготовится к фестивалю Monsters Of Rock Festival в Castle Donington, намеченный на 16 августа, где Rainbow были хедлайнерами. Перед фестивалем группа дала три подготовительных концерта в Скандинавии — 8, 9 и 10 августа. На фестивале перед 60 тысячами зрителей помимо Rainbow выступили Scorpions, Judas Priest, April Wine, Saxon, Riot и Touch. Запись фестивального концерта группы некоторое время планировалось выпустить в качестве двойного альбома, но после того, как были отпрессованны пробные экземпляры, от идеи отказались. Этот концерт оказался последним выступлением в группе Кози Пауэлла, который уже на следующий день по окончании фестиваля покинул состав. Ричи Блэкмор: Кози может быть столь же непредсказуемым, как и я. Но внутри он очень подавлен и глубоко несчастен. Бывает, мы с ним выходим из себя… тогда мы просто бегаем друг от друга. В последнее время мы ссорились по любому поводу. В том числе и по поводу завтрака… А ещё из-за Since You Been Gone. Кози просто возненавидел эту песню… Однажды это должно было случиться. Мы оба сильные люди, в этом вся проблема. Так что это не было для меня сюрпризом. Я вообще удивлён, что он так долго продержался, я думал, он уйдёт намного раньше. На фестивале в Доннингтоне во время выступления Rainbow за сценой стоял новый барабанщик группы Бобби Рондинэлли, найденный Ричи в одном из клубов Лонг-Айленда. Грэм Боннэт более других сожалел о случившемся. По его словам, после ухода Пауэлла в группе больше не было радости. Грэм Боннэт после этого концерта отправился в Лос-Анжелес для записи своего сольного альбома и только через три недели вылетел в Копенгаген, где группа уже записывала альбом в студии Sweet Silence Studios. Неудовлетворённый результатом, Блэкмор решил привлечь к работе другого вокалиста — Джо Линна Тёрнера, который, как отмечалось, манерой исполнения во многом напоминал, Пола Роджерса, высоко ценимого Блэкмором. Умудрённый прошлым горьким опытом, гитарист не стал сразу увольнять Боннэта, поскольку не был уверен, что Тёрнер согласится войти в состав. Впрочем, Боннэт успел записать партию вокала лишь для «I Surrender» (ещё одной композиции Раса Бэлларда); к этому моменту он Блэкмору был уже явно не нужен. Гитарист вспоминал: Грэм не хотел уходить из Rainbow, когда ему уже явно указывали на дверь. Мы уже пригласили в группу Джо Линн Тёрнера, а Грэм так и не понял, что получил отставку. Тогда я сказал ему: «Ты будешь петь дуэтом с Джо!» Вот только тогда он ушёл от нас. Справедливости ради надо отметить, что два вокалиста всё же спели дуэтом. Произошло это в 2007 году в ходе их совместного турне «Back To The Rainbow», где оба выходили на сцену попеременно, а в финале совместно исполняли «Long Live Rock’n’roll». Эра Тёрнера Джо Лин Тёрнер, на которого пал выбор, до того как ему позвонили, сидел без работы, поскольку Fandango, с которыми он выступал прежде, распались, и он безуспешно пытался найти себе новую работу — первоначально в качестве гитариста — в группе, которая имела бы контракт. По словам Тёрнера, причиной неудач был тот факт, что он каждый раз «затмевал вокалиста, главного человека в группе». «Оказывалось, что я пою чересчур хорошо, играю чересчур хорошо, и я всегда получал отказ». Тогда Тёрнер решил найти такую группу, в которой он смог бы стать «лидером на сцене». Менеджер Rainbow позвонил Тёрнеру, задал несколько вопросов, передал трубку Блэкмору. Тот сообщил Тёрнеру, что является поклонником — и его и Fandango, часто слушает альбомы группы, на что Тёрнер ответил, что и он — большой поклонник творчества Блэкмора со времён Purple. Блэкмор предложил своему собеседнику приехать на прослушивание: «Знаешь, мы сейчас репетируем в студии, и ищем вокалиста, так что приезжай!». Тот переспросил: «А разве у вас не Грэм Боннэт поёт?» «Давай, приезжай» — отвечал Блэкмор и назвал адрес студии, находившейся на Лонг-Айленде. Тёрнер, живший в Нью-Йорке, добрался до места назначения на метро. Поначалу он нервничал, но уже после исполнения «I Surrender» оставшийся удовлетворённым Блэкмор предложил ему остаться в группе. Я точно знал, кто мне нужен. Блюзовый певец, кто-то, кто бы чувствовал то, о чём поёт, а не только бы орал во всю глотку. Джо как раз тот человек. У него столько идей песен, сколько у меня никогда не было. Я хотел найти кого-то, кто будет развиваться в группе. Свежую кровь. Энтузиазм. Я тупею от людей, которым не нужно ничего кроме денег: новый день, новый доллар. Я хотел прежде всего идеи, а остальному научим. — Ричи Блэкмор Одобряя Тёрнера как певца, Блэкмор критически относился к его поведению на сцене. Солидарна с ним в этом оказалась и публика, уже на первом же выступлении освиставшая вокалиста, которого многие приняли за голубого. За кулисами Блэкмор схватил Тёрнэра и потребовал прекратить неподобающее поведение. «Прекрати вести себя как баба. Ты не Джуди Гарленд», — заявил он. Этот урок Блэкмора, преподанный Тёрнеру, был не последним. Не избежал Тёрнер и традиционных блэкморовских «шуточек». Однажды вечером, когда он в гостиничном номере общался с гостями, в дверь постучал роуди Блэкмора по прозвищу «Ураган», славившийся крутым нравом, и сказал, что оставил паспорт в куртке, которая находиласьв комнате. Вслед за «Ураганом» вошёл Блэкмор с остальными участниками группы и принялись выкидывать в окно всё, что было в номере. Безуспешные попытки Тёрнера спасти хотя бы матрас с кровати, обернусь для него лишь ссадинами. После этого его выволокли в коридор и закатали в ковровую дорожку. Утром Дон Эйри сказал, что вещи пролетали мимо его окна всю ночь. По словам управляющего отеля, Блэкмор за всё заплатил и передал ему записку: «Добро пожаловать в группу». 6 февраля 1981 года вышел очередной альбом группы Difficult to Cure, пластинка стилистически пёстрая, явно рассчитанная на коммерческий успех, поднялась до #5 в США и до #3 в Великобритании[33]. Компания Polydor, отреагировав на возросшую популярность группы, переиздала сингл «Kill The King», а также первый альбом группы — Ritchie Blackmore’s Rainbow. В декабре вышел сборник The Best Of Rainbow, достигший 14-й позиции в Британии. Гастрольный тур в поддержку нового альбом начался в конце февраля 1981 года. В ходе турне Бобби Рондинелли добавил к своей установке молот и гонг. Тёрнеру разрешалось брать на сцене свою гитару Fender Silver Anniversary и играть вместе с Ричи Блэкмором «Difficult to Cure». По-видимому, в ответ на соответствующий запрос аудитории на концертах стала исполняться песня «Smoke on the Water». Начиная с 23 июля на концертах c Rainbow стали выступать бэк-вокалистки Лин Робинсон и Ди Бил (англ. Dee Beale). Необходимость эта была вызвана тем фактом, что Тёрнер, исполнявший в студии не только вокальные, но бэк-вокальные партии, не мог делать этого на концерте. 1 декабря того же года стало известно, что из группы уходит Дон Эйри. По словам музыканта, группа стала «слишком трансатлантической», и он решили уйти сам, чтобы его «не подвинули». Вместо него Блэкмор взял 21-летнего американца Дэвида Розенталя, плёнка с концертом которого ему как-то попалась в руки. Скрыть...
Популярные аккорды Rainbow:
алфавиту | просмотрам | случайно
  • E|-------|-------------------------|-------------------------|
    B|-------|-------------------------|-------------------------|
    G|-----2-|-7s====5-----------4s==5-|-4s3---2---------------2-|
    D|-2-----|-------------------------|-------------------2-----|
    A|-------|-------------------------|-------------------------|
    E|-------|-------------------------|-------------------------|
    
    E|-------------------------|-----------------------------|
    B|-------------------------|---------------------------5-|
    G|-7-----5-----------4s==5-|-4s5s4---(4)-----------5-----|
    D|-------------------------|---------------------5-------|
    A|-------------------------|-----------------------------|
    E|-------------------------|-----------------------------|
    
    E|-----------------------|---------------------------|
    B|-6s====5---------------|---------------------------|
    G|---------------------5-|-9s====7-------------9---7-|
    D|-------------------5---|---------------------------|
    A|-----------------------|---------------------------|
    E|-----------------------|---------------------------|
    
    E|-------------|-------------|---------------------------------|
    B|-------------|-------------|-------------3---5-6-------8---6-|
    G|-7s5--5--4s3-|-2-(2)---2-5-|-7-----(7)-----------------------|
    D|-------------|-------------|---------------------------------|
    A|-------------|-------------|---------------------------------|
    E|-------------|-------------|---------------------------------|
    
    E|------------------------------------|------------------------|
    B|-5s6s5-----------(5)-----10-12---13-|-12---------------13s12-|
    G|-----------------------9------------|------------------------|
    D|------------------------------------|------------------------|
    A|------------------------------------|------------------------|
    E|------------------------------------|------------------------|
    
    E|----------------------|-------------------------|
    B|-12s====10------------|-------------------------|
    G|--------------------2-|-7-----5-----------4---5-|
    D|------------------2---|-------------------------|
    A|----------------------|-------------------------|
    E|----------------------|-------------------------|
    
    E|-----------------|--------------------|----------------------|
    B|-----------------|--------------------|--------------------5-|
    G|-4s3---2-------2-|-7-----5------4---5-|-4s5s4---(4)------5---|
    D|-----------2-----|--------------------|----------------5-----|
    A|-----------------|--------------------|----------------------|
    E|-----------------|--------------------|----------------------|
    
    E|-----------------------------|-------------------------------|
    B|-6s5s==6s==5s==6s==5s6-----5-|-------------------------------|
    G|-----------------------------|-9-9---9---9s7---9s7-----(7)-9-|
    D|-----------------------------|-------------------------------|
    A|-----------------------------|-------------------------------|
    E|-----------------------------|-------------------------------|
    
    E|----------------------------|--------------------------------|
    B|----------------------------|-----------------------------13-|
    G|-(9)--7-5-5-(5)---(5)-5-7-9-|-10---(10)---10s==12-14---14----|
    D|----------------------------|--------------------------------|
    A|----------------------------|--------------------------------|
    E|----------------------------|--------------------------------|
    
    E|--------------------------------------|
    B|-15-----15---13-15-(15)---------15-15-|
    G|--------------------------------------|
    D|--------------------------------------|
    A|--------------------------------------|
    E|--------------------------------------|
    
    E|-------------------------------------|-----------------------|
    B|-15-13-13-13s==12---12-----10-0-12-0-|-13s12---(12)-12-13s12-|
    G|-------------------------9-----------|-----------------------|
    D|-------------------------------------|-----------------------|
    A|-------------------------------------|-----------------------|
    E|-------------------------------------|-----------------------|
    
    E|----------------------|------------|------------|------------|
    B|-12s====10------------|------------|------------|------------|
    G|----------------------|------------|------------|--------6-7-|
    D|----------------------|------------|----------5-|-7----7-----|
    A|----------------------|-5------5-7-|-8------8---|------------|
    E|----------------------|------------|------------|------------|
    
    E|-------------------------------------------|--------|--------|
    B|-------------------------------------------|--------|-----10-|
    G|-7-6h7p6h7p6h7p6h7p6h7p6h7p6h7p6h7p6h7s5-7-|--------|--------|
    D|-------------------------------------------|--------|---7----|
    A|-------------------------------------------|-5--5-7-|-8------|
    E|-------------------------------------------|--------|--------|
    
    E|-9-10-9-10-9-10-9h10p9h10p9h10p9h10p9h10p9h10p9h10p9h10-|----|
    B|--------------------------------------------------------|-10-|
    G|--------------------------------------------------------|----|
    D|--------------------------------------------------------|----|
    A|--------------------------------------------------------|----|
    E|--------------------------------------------------------|----|
    
    E|-----------------|-------------|----------------|---------|
    B|-----------------|-------------|----------------|---------|
    G|-----------------|-------------|-5--2-----------|-4s==2p0-|
    D|-8-7-5-----------|-5h7p5--4----|------4-2-1-2-3-|---------|
    A|-------7-5s4-5-7-|--------5----|----------------|---------|
    E|-----------------|-------------|----------------|---------|
    
    E|------------|----------|------------|--------|
    B|-6----6--5--|-3--------|------------|--------|
    G|-7----7--5--|-4--------|------------|--------|
    D|-9----9--7--|-6--------|-3----3--2--|-0------|
    A|------------|----------|------------|------3-|
    E|------------|----------|------------|--------|
    
    E|----------|---------------|-----------|---------------|
    B|----------|---------------|-----------|---------------|
    G|----------|-------------7-|-7s===5p===|=0-------5-7-5-|
    D|----------|-----------7---|-----------|-------7-------|
    A|----------|---------7-----|-----------|-----7---------|
    E|-0--------|-0-------------|-----------|---------------|
    
    E|------------|-----------------------|
    B|------------|-----------------------|
    G|-7s5s7p=====|=0-------7-7p5-7p5---5-|
    D|------------|-------7-----------7---|
    A|------------|-----7-----------------|
    E|------------|-----------------------|
    
    E|-------------------------------5----|
    B|-----------------------------5---10-|
    G|-5s4---4-5s4---5-7p5---5-7-8--------|
    D|-----7-------7-------7--------------|
    A|------------------------------------|
    E|------------------------------------|
    
    E|---------7----8p7----8p7------------------------|
    B|-(10)-10---10-----10-----10-8p7s5-8p7p5---------|
    G|----------------------------------------8p7p5-7-|
    D|------------------------------------------------|
    A|------------------------------------------------|
    E|------------------------------------------------|
    
    E|------------------|-----------------|
    B|------------------|-----------------|
    G|-7----(7)-7-7-7-7-|-(7)-----5-7--7--|
    D|------------------|-----------------|
    A|------------------|-----------------|
    E|------------------|-----------------|
    
    E|---------------------------------------|
    B|---------------------------------------|
    G|-7h9p7h9p7h9p7h9p7h9p7h9p7s5-7---5h7p5-|
    D|---------------------------------------|
    A|---------------------------------------|
    E|---------------------------------------|
    
    E|-------------------8-10-8h10p8-12-|
    B|-----------------8----------------|
    G|-(5)---(5)-(5)-9------------------|
    D|----------------------------------|
    A|----------------------------------|
    E|----------------------------------|
    
    E|-(12)--10----------------------|----------19-19--17---16-|
    B|----------13p12p10s9--10-9-----|-------17----------------|
    G|---------------------------9---|---17--------------------|
    D|-------------------------------|-------------------------|
    A|-------------------------------|-------------------------|
    E|-------------------------------|-------------------------|
    
    E|-17------8-10-12-|-(12)--10p8-----------8-|
    B|-------10---------|------------10-(10)----|
    G|------------------|-----------------------|
    D|------------------|-----------------------|
    A|------------------|-----------------------|
    E|------------------|-----------------------|
    
    E|---------------------8-12-|-(12)---12---10p8------|
    B|-10---10-10--(10)-10------|------------------10p8-|
    G|--------------------------|-----------------------|
    D|--------------------------|-----------------------|
    A|--------------------------|-----------------------|
    E|--------------------------|-----------------------|
    
    E|----------8-10--8--|-10----x-12-13-12-|
    B|-10----10----------|------------------|
    G|-------------------|------------------|
    D|-------------------|------------------|
    A|-------------------|------------------|
    E|-------------------|------------------|
    
    E|-17--17--17s15p(15)p12----|-----------------------|
    B|-----------------------15-|-17---17-(17)-15-15-13-|
    G|--------------------------|-----------------------|
    D|--------------------------|-----------------------|
    A|--------------------------|-----------------------|
    E|--------------------------|-----------------------|
    
    E|-----------------|------------12----13-12----13-|
    B|-15----(15)---17-|-15----(15)----15-------15----|
    G|-----------------|------------------------------|
    D|-----------------|------------------------------|
    A|-----------------|------------------------------|
    E|-----------------|------------------------------|
    
    E|-12-------------------------------|
    B|----15-13p12----12-13p12----------|
    G|-------------14----------14p13-14-|
    D|----------------------------------|
    A|----------------------------------|
    E|----------------------------------|
    
    E|-12-10h12p10-8-10-9h10p9h10----|
    B|----------------------------10-|
    G|-------------------------------|
    D|-------------------------------|
    A|-------------------------------|
    E|-------------------------------|
    
    E|--13-12-13-17s==15-|---5-7-8-7h8p7h8-5---------|
    B|-------------------|-------------------10-(10)-|
    G|-------------------|---------------------------|
    D|-------------------|---------------------------|
    A|-------------------|---------------------------|
    E|-------------------|---------------------------|
    
    E|-------------------------|--------------------------|------*-|
    B|-6-5h6p5-----------------|-6-5----------------------|------*-|
    G|---------7-5--4s5s4-(4)--|-----7-5-9-7--------------|------*-|
    D|-------------------------|-------------7-9-10s9-7s5-|-7----*-|
    A|-------------------------|--------------------------|------*-|
    E|-------------------------|--------------------------|------*-|…
  • Electric Guitar 1
    
    E|------------------------|--------0----------0---------|
    B|------------------------|--------0--------0---0-------|
    G|------------------------|--------0------4-------4p2-0-|
    D|----------0-2-----0-----|--------0--------------------|
    A|--------------0-2-------|-----2-----------------------|
    E|---------------------3/-|--0--------------------------|
    
    E|-----------3h----------------|-------5--------------------|
    B|-----------3-5p3----0h1p0----|-------5--------------------|
    G|--0--------------5--------0--|-------5--------5-7-5-7-5-7-|
    D|-----------------------------|--7-------------5-7-5-7-5-7-|
    A|-----------------------------|------------5h7-------------|
    E|-----------------------------|----------------------------|
    
    E|--------7----------0-------|--------------------------|
    B|--------8--------0---0---0-|--------------------------|
    G|--------7------4-------4---|----------------5-7-5-----|
    D|--------9------------------|-------------5--5h7-5-----|
    A|--------7------------------|--3------5-7-----------7--|
    E|--0--7---------------------|--------------------------|
    
    E|--5--8--10--8--10-8-5--5-|------------------5-7-5-7-|-----|
    B|--5--8--10--8--10-8-5--5-|------------------5-7-5-7-|--8--|
    G|-------------------------|-7-9-7-9-7-9-7------------|--9--|
    D|-------------------------|-7-9-7-9-7-9--------------|--10-|
    A|-------------------------|--------------------------|-----|
    E|-------------------------|--------------------------|-----|
    
    E|-------------------|----------3-----------------|------------|
    B|----------3--------|----------3h5p3----0h1p0----|------------|
    G|----------0--------|----------------5--------0--|------------|
    D|----------2--------|----------------------------|----------2-|
    A|----------2--------|----------------------------|------------|
    E|----------0--------|----------------------------|------------|
    
    E|-----------------------|-------------|
    B|-----------------------|--5--------7-|
    G|------7-9-7-9-7--------|--5--------7-|
    D|------7-9-7-9-7--------|--5--------7-|
    A|-----------------------|-------------|
    E|-----------------------|-------------|
    
    E|----------3--------------|-----------|-----------------------|
    B|----------3h5p3----0-----|-----------|-----------------------|
    G|----------------5-----0--|--2--------|----------7-9-7-9-7----|
    D|-------------------------|-----------|----------7-9-7-9-7----|
    A|-------------------------|-----------|-----------------------|
    E|-------------------------|-----------|-----------------------|
    
    E|------------12-|
    B|------------12-|
    G|--7-9-------12-|
    D|--7-9----------|
    A|---------------|
    E|---------------|
    
    E|------------------0------|---------------|
    B|------8-7-8-7-8-7--------|------5--8--10-|
    G|-------------------------|---------------|
    D|-------------------------|---------------|
    A|-------------------------|---------------|
    E|-------------------------|---------------|
    
    E|------------3--|----------------------|----------------------|
    B|---------3-----|--5----------3--------|----------------------|
    G|------4--------|----------------4-2---|--4----------4--2--0--|
    D|---------------|----------------------|----------------------|
    A|---------------|----------------------|----------------------|
    E|---------------|----------------------|----------------------|
    
    E|------------------|-------------------3--|-------------------|
    B|------------------|----------------3-----|--5------3---------|
    G|--2---4-2-4-2-4-2-|--4-2-0---------------|------------4-2-0--|
    D|------------------|---------2/-----------|-------------------|
    A|------------------|----------------------|-------------------|
    E|------------------|----------------------|-------------------|
    
    E|------------------|-------5-----7--5--3--|-------------------|
    B|------------------|----------------------|--5----------5--7--|
    G|--4------4--2--0--|--2/------------------|-------------------|
    D|------------------|----------------------|-------------------|
    A|------------------|----------------------|-------------------|
    E|------------------|----------------------|-------------------|
    
    E|--------5--7--10--|--12~-----14--15--17--|--12---7~------10--|
    B|--8~--------------|----------------------|-----------10------|
    G|------------------|----------------------|-------------------|
    D|------------------|----------------------|-------------------|
    A|------------------|----------------------|-------------------|
    E|------------------|----------------------|-------------------|
    
    E|--12~-----------|
    B|------------12~-|
    G|----------------|
    D|----------------|
    A|----------------|
    E|----------------|
    
    E|------------------0------|---------------|
    B|------8-7-8-7-8-7--------|------5--8--10-|
    G|-------------------------|---------------|
    D|-------------------------|---------------|
    A|-------------------------|---------------|
    E|-------------------------|---------------|
    
    E|------------------------|
    B|--5--------5--7--8--10--|
    G|------------------------|
    D|------------------------|
    A|------------------------|
    E|------------------------|
    
    E|------------|
    B|--12----10~-|
    G|------------|
    D|------------|
    A|------------|
    E|------------|
    
    E|------------------------|-----------|
    B|--5--------5--7--8--10--|--12----5~-|
    G|------------------------|-----------|
    D|------------------------|-----------|
    A|------------------------|-----------|
    E|------------------------|-----------|
    
    E|------------------|------------------------|-----------|
    B|------------------|--5--------5--7--8--10--|--12----5~-|
    G|------------------|------------------------|-----------|
    D|------------------|------------------------|-----------|
    A|------------------|------------------------|-----------|
    E|------------------|------------------------|-----------|
    
    E|-----------------|------------------|------------------------|
    B|--8-----7--5--3--|--5----------3----|--5--------5--7--8--10--|
    G|-----------------|------------------|------------------------|
    D|-----------------|------------------|------------------------|
    A|-----------------|------------------|------------------------|
    E|-----------------|------------------|------------------------|
    
    E|--------------------|----------------------|-----------------|
    B|--12----5----8--10--|--10--12------10--12--|--8~--------6----|
    G|--------------------|----------------------|-----------------|
    D|--------------------|----------------------|-----------------|
    A|--------------------|----------------------|-----------------|
    E|--------------------|----------------------|-----------------|
    
    E|-------------------|-------------7--10-|-12----12~----14--15-|
    B|--5---5--7--8--10--|-12----5-----------|---------------------|
    G|-------------------|-------------------|---------------------|
    D|-------------------|-------------------|---------------------|
    A|-------------------|-------------------|---------------------|
    E|-------------------|-------------------|---------------------|
    
    E|--15~-------14--15--14-15-14-15-|--0----------------------|
    B|--------------------------------|--17--------5--7--8--10--|
    G|--------------------------------|-------------------------|
    D|--------------------------------|-------------------------|
    A|--------------------------------|-------------------------|
    E|--------------------------------|-------------------------|
    
    E|----------|-------------------------|--8--------8--7--8--10--|
    B|--12----5-|--12--------11--8--7--8--|------------------------|
    G|----------|-------------------------|------------------------|
    D|----------|-------------------------|------------------------|
    A|----------|-------------------------|------------------------|
    E|----------|-------------------------|------------------------|
    
    E|--0-------------------|-------------|--12------14--15~-------|
    B|--17-----5--7--8--10--|--12----5----|------------------------|
    G|----------------------|-------------|------------------------|
    D|----------------------|-------------|------------------------|
    A|----------------------|-------------|------------------------|
    E|----------------------|-------------|------------------------|
    
    E|--15~---13--14--15--17--|--0----------------------|----------|
    B|------------------------|--17--------5--7--8--10--|--12----5-|
    G|------------------------|-------------------------|----------|
    D|------------------------|-------------------------|----------|
    A|------------------------|-------------------------|----------|
    E|------------------------|-------------------------|----------|
    
    E|--12----10--8--7--5--7-|-8~-----7--5--3--5-|-----------------|
    B|-----------------------|-------------------|-5--5--7--8--10--|
    G|-----------------------|-------------------|-----------------|
    D|-----------------------|-------------------|-----------------|
    A|-----------------------|-------------------|-----------------|
    E|-----------------------|-------------------|-----------------|
    
    E|---------|--12~-----11--12--11--12--11-|-8-------7--8--10----|
    B|-12----5-|-----------------------------|---------------------|
    G|---------|-----------------------------|---------------------|
    D|---------|-----------------------------|---------------------|
    A|---------|-----------------------------|---------------------|
    E|---------|-----------------------------|---------------------|
    
    E|-0-------------------|------------------12----|-15----15-----|
    B|-12------5--7--8--10-|-12----5------12-----12-|------------4-|
    G|---------------------|------------------------|--------------|
    D|---------------------|------------------------|--------------|
    A|---------------------|------------------------|--------------|
    E|---------------------|------------------------|--------------|
    
    E|-15-14-15-17-15-17-19-17-15-17-15-14-|-0---------------------|
    B|-------------------------------------|-20-------5--7--8--10--|
    G|-------------------------------------|-----------------------|
    D|-------------------------------------|-----------------------|
    A|-------------------------------------|-----------------------|
    E|-------------------------------------|-----------------------|
    
    E|---------|-14----12--10--8--7--5--7--|--8~-------8--7--5--7--|
    B|--12---5-|---------------------------|-----------------------|
    G|---------|---------------------------|-----------------------|
    D|---------|---------------------------|-----------------------|
    A|---------|---------------------------|-----------------------|
    E|---------|---------------------------|-----------------------|
    
    E|----|
    B|--5-|
    G|----|
    D|----|
    A|----|
    E|----|…
  • INTRO:
    
    e|--3-3-3------------------------------------3-3-3---------------------------|
    B|--3-3-3------------------------------------3-3-3---------------------------|
    G|--0-0-0------7-7------9-9-9-----5-5--------0-0-0------7----9---5-----5--5--|
    D|--5-5-5------7-7------9-9-9-----5-5--------5-5-5------7----9---5-----5--5--|
    A|--5-5-5------5-5------7-7-7-----3-3--------5-5-5------5----7---3-----3--3--|
    E|---------------------------------------------------------------------------|
    
    e|-----------3-3-3--------------------------------3-3-3----------------------|
    B|-----------3-3-3--------------------------------3-3-3----------------------|
    G|-----7-7---0-0-0-----7-7-----9-9-9-----5-5------0-0-0----7--9----5--5-s-7--|
    D|-----7-7---5-5-5-----7-7-----9-9-9-----5-5------5-5-5----7--9----5--5-s-7--|
    A|-----5-5---5-5-5-----5-5-----7-7-7-----3-3------5-5-5----5--7----3--3-s-5--|
    E|---------------------------------------------------------------------------|
    
    SOLO…
  • Intro: 	Am / F / Am / F / Am / G /Dm/ Am 
     
    e|------------------------------|----------------------| 
    B|--5----3h5p3--1---3--1--2-----|--10--8---------------| 
    G|------------------------------|---------9--7---------|…
  • w   3x  H  e  e       e  e  e  e  e  e  e  e     e  e  s  s    
    Gb--||---r---||--r--r-----||---------------------------|----------------
    Db--||*--e--*||--e--e-----||*--------------------------|--------6--4----
    Ab--||*--s--*||--s--s-----||*--------------------------|----------------
    Eb--||---t---||--t--t--2--||---4--4--4--4--4--4--4--4--|--4--4----------…
  • ------------------------|
    ------------------------|
    |-----2-|-7s====5-----------4s==5-|-4s3---2---------------2-|
    |-2---------------------------2-----|
    ------------------------|
    ------------------------|
    
    
            ~
    --------------|
    --------------|
    |-7-----5-----------4s==5-|
    --------------|
    --------------|
    --------------|…
  • Куплет
    E|----------------------|--------------------2----|
    B|-------------------0--|--------0--------------3-|
    G|----------------------|-----------0-------------|
    D|----------------2-----|-----0-----------0-------|
    A|-------------2--------|-------------------------|
    E|----------0-----------|--3-----------2----------|
    
    E|--------0-----------------|-------------------------|
    B|-----------0--------1-----|--------3----------------|
    G|-----------------------0--|-----------2-----------0-|
    D|-----2-----------2--------|-----0--------------2----|
    A|--0-----------3-----------|-----------------2-------|
    E|--------------------------|--2-----------0----------|
    
    E|--0----------------------|--------------------2----|
    B|-------------------------|-----------0-----------3-|
    G|-------0--------------0--|-------------------------|
    D|----------2--------2-----|--------0--------0-------|
    A|----------------2--------|-----2-------------------|
    E|-------------0-----------|--3-----------2----------|
    
    E|--------0-------------0-----|-------------------------|
    B|----------------------------|--------3----------------|
    G|-----------2-----0-------0--|-----------2-----------0-|
    D|-----2-------2-----2--------|-----0--------------2----|
    A|--0------------3------------|-----------------2-------|
    E|----------------------------|--2-----------0----------|
    
    Припев
    E|--0---------------------|-----------------------3-|
    B|-------------------1----|--------3-----------0----|
    G|-------0----------------|-----------2-------------|
    D|----------------2-------|-----0-----------0-------|
    A|----------2--3----------|-------------------------|
    E|------------------------|--2-----------3----------|
    
    E|-----------------------0--|-----------------------2-|
    B|--0-----------------------|--------2-----------3----|
    G|-----0--------------------|-----2-----0-----2-------|
    D|--------------------2-----|--------------0----------|
    A|-----------------2--------|--0----------------------|
    E|--------3--2--0-----------|-------------------------|
    
    E|--3--2--0----------------|-------------------------|
    B|-----------3-------------|--------3--------------0-|
    G|--------------------0----|-----2-----2--------0----|
    D|-----------------2-------|--0--------------0-------|
    A|--------------3----------|-------------------------|
    E|-------------------------|--------------3----------|
    
    E|--3----------------------|--0--------0-|
    B|-----0----------------1--|-----------1-|
    G|--------0----------0-----|-----------2-|
    D|----------------2--------|-----------2-|
    A|-------------3-----------|-----------0-|
    E|-------------------------|-------------|
    
    Поигрыш
    E|----------------------|--0----------------------|
    B|----------------------|-----0----------------0--|
    G|-------------------0--|--------0----------0-----|
    D|----------------2-----|----------------2--------|
    A|-------------2--------|-------------3-----------|
    E|----------0-----------|-------------------------|
    
    E|-------0-----------------|-3----2----------------|
    B|--3--------------------3-|-----------------------|
    G|----------0---------2----|--------------------0--|
    D|------------2----0-------|-----------------2-----|
    A|-------------------------|--------------2--------|
    E|--------------2----------|-----------0-----------|
    
    E|--0-----------------------|--2----------------------|
    B|-----0--------------1-----|-----1-----1-------------|
    G|--------0--------2-----2--|--------2--------------0-|
    D|-----------2--------------|--------------------2----|
    A|--------------0-----------|-----------------2-------|
    E|--------------------------|--------------0----------|
    
    E|-0---------------------|--0---------------------0--|
    B|------0-------------1--|-------1-------------0-----|
    G|-----------------0-----|---------0-----------------|
    D|--------------2--------|------------------2--------|
    A|-----------3-----------|-----------3-2-0-----------|
    E|-----------------------|---------------------------|
    
    E|------------------------|-0-------------------2--|
    B|----1-------------------|------0-----------3-----|
    G|-------2--------------0-|---------0-----2--------|
    D|----------2--------2----|------------------------|
    A|----------------2-------|------------------------|
    E|-------------0----------|------------2-----------|
    
    E|--------0--------------2--|--3----0-------------2-|-3----2-|
    B|-----------1--------3-----|------------------1----|--------|
    G|-----------------2--------|---------------2-------|--------|
    D|-----2--------0-----------|------------0----------|-0----0-|
    A|--3-----------------------|-----------------------|--------|
    E|--------------------------|-----------------------|--------|…
  • D
    I heard the sound of voices in the night
    
    		     A	     E
    Spellbound there was someone calling
    
    D
    I looked around no one was in sight
    
                A              E
    Pulled down I just kept on falling
    
    D              A
    I’ve…
  • Intro: Am
    
    Am
    It's only been an hour
              C/G              Am
    Since he locked her in the tower
        C/G       Am
    The time has come
    C/G          E 
    He must be undone
           Am
    By the morning
    
    Many times before
    The tyrant's…
  • Dm Am
    F
    With a rebel mind and a gypsy heart
    C
    No place could ever be home
    Gm                         B                  Dm (A)
    Drawn like a wolf to the moon it calls to my soul
    Ain't got no woman, they just tie me down
    Freedom…
  • p.m.
    E----------------------|
    B----------------------|
    G----------------------|
    D----------------------|
    A----------------------|
    E--0-0-0-0-00000000----|
    
    
    		  p.m.
    E--------------------------------------|
    B--------------------------------------|
    G--------------------------------------|
    D--5---4---5---4-----------------------|
    A--3---3---3---3-----------------------|
    E-----------------0-0-0-0-00000000-----|…
  • C#|--------------------------|
    G#|--------------------------|
    E |--------------------------|
    B |--------------------------|
    F#|--------2---2~1---1~0---0-|
    C#|0-2-3-5---3-----2-----1---|
    
    Riff 2
    C#|--------------------------|
    G#|--------------------------|
    E…
  • G7
    Contaminated fish and micro chips
    
    Huge supertankers on arabian trips
                             F
    Oily propaganda from the leaders lips
    C7
    All about the future
    
    Theres people over here, people over there
    Everybodys looking…
  • FIG.1(intro)
    E------------------|
    B---6------6-------|
    G---4------4-------|
    D------------------|
    A------------------|
    E------------------|
    
    E------------------|-------------------|-----------------|-----------------|
    B------------------|-------------------|-----------------|-----------------|
    G------------------|-------------------|-----------------|-----------------|
    D-------2-----2/4~-|---2-0-------------|-------2----2/4~-|----2-----4~~----|
    A-0-2-4-----4------|--------2-0--------|-0-2-4----4------|-----------------|
    E------------------|------------2-0----|-----------------|-----------------|
    
    E------------------|-------------------|-----------------|-----------------|
    B------------------|-------------------|-----------------|-----------------|
    G------------------|-------------------|-----------------|-----------------|
    D-------2-----2/4~-|---2-0-------------|-------2----2/4~-|----2-----4~~----|
    A-0-2-4-----4------|--------2-0--------|-0-2-4----4------|-----------------|
    e------------------|------------2-0----|-----------------|-----------------|
    
    
    
    
    
    FIG.2
    E------------------|-------------------|-----------------|-----------------|
    B------------------|-------------------|-----------------|-----------------|
    G------------------|-------------------|-----------------|-----------------|
    D------4---4-------|------4---4--------|------2---2------|------4---4------|
    A----4----4--------|----4----4---------|----2----2-------|----4----4-------|
    e--2-----2---2-----|--2-----2---2------|--0-----0---0----|--2-----2---2----|
    
    E------------------|-------------------|-----------------|-----------------|
    B------------------|-------------------|-----------------|-----------------|
    G------------------|-------------------|-----------------|-----------------|
    D------4---4-------|------4---4--------|----2--2----2--2-|--4~~------------|
    A----4----4--------|----4----4---------|--2---2---2---2--|--4~~------------|
    e--2-----2---2-----|--2-----2---2------|0----0--0----0---|--2~~------------|
    
    
    
    
    
    FIG.3
    E------------------|-------------------|-----------------|-----------------|
    B------------------|-------------------|-----------------|-----------------|
    G--7~~--7~---9~~---|--7~-7~-7~--7~-9~--|-----------------|-----------------|
    D--7~~--7~---9~~---|--7~-7~-7~--7~-9~--|--------2---2/4~-|--2-0------------|
    A--5~~--5~---7~~---|--5~-5~-5~--5~-7~--|--0-2-4---4------|------2-0--------|
    e--5~~--5~---7~~---|--5~-5~-5~--5~-7~--|-----------------|----------2-0----|
    
    E------------------|-------------------|-----------------|-----------------|
    B------------------|-------------------|-----------------|-----------------|
    G------------------|-------------------|--7~~--7~---9~~--|--7~-7~-7~--7~-9~|
    D--------2---2/4~--|--2-0--------------|--7~~--7~---9~~--|--7~-7~-7~--7~-9~|
    A--0-2-4---4-------|------2-0----------|--5~~--5~---7~~--|--5~-5~-5~--5~-7~|
    e------------------|----------2-0------|--5~~--5~---7~~--|--5~-5~-5~--5~-7~|
    
    E------------------|-------------------|-----------------|-----------------|
    B------------------|-------------------|-----------------|-----------------|
    G------------------|-------------------|-----------------|-----------------|
    D-------2-----2/4~-|---2-0-------------|-------2----2/4~-|----2-----4~~----|
    A-0-2-4-----4------|--------2-0--------|-0-2-4----4------|-----------------|
    E------------------|------------2-0----|-----------------|-----------------|
    
    E------------------|-------------------|-----------------|-----------------|
    B------------------|-------------------|-----------------|-----------------|
    G------------------|-------------------|-----------------|-----------------|
    D-------2-----2/4~-|---2-0-------------|-------2----2/4~-|----2-----4~~----|
    A-0-2-4-----4------|--------2-0--------|-0-2-4----4------|-----------------|
    e------------------|------------2-0----|-----------------|-----------------|…
Наверх