Аккорды Rainbow KItten Surprise - It's Called Freefall

Добавлено: @romashka
Дата добавления: 19 Мая 2024г.
Рейтинг:
0.0
Просмотров: 21
[Outro]

e|-----------------------------------------------------------------------------------------------------|
B|-----------------------------------------------------------------------------------------------------|
B|-----------------------------------------------------------------------------------------------------|
D|-------2-------2-----2/4--------2-----2-----2/4------------------------------------------------------|
A|-------------------------------------------------------9-------9-----9-------------9----9-----9----9-|
E|-3--3-------3-----3-------0--0-----0-----0-------7--7-------7-----7-----7----10-10----10---10---10---|

e|---------------------------------------------------------------------|
B|---------------------------------------------------------------------|
G|---------------------------------------------------------------------|
D|--------16-16-19-16-16-16-16-16-19-16-16-16-21-19-16-16-16-16-19--16-|
A|-17--17--17-17-17-17-17-17-17-17-17-17-17-17-17-17-17-17-17-17--17---|
E|---------------------------------------------------------------------|

e|----------------------------------------------------------|
E|----------------------------------------------------------|
B|------21----19----16------14-------21----19----16------21-|
G|----------------------------------------------------------|
D|-17-17----17----17----17------17-17----17----17----17-----|
E|----------------------------------------------------------|

************************************

| /  Slide up

************************************
Цель музыки - трогать сердца (Бах)
Мы стремимся к созданию контента, соответствующего всем нормам законодательства и уважающего интеллектуальную собственность. Мы также придаем большое значение тому, чтобы не задеть никого и не оскорбить чьи-либо чувства. Если у вас есть вопросы или претензии по размещенному материалу, пожалуйста, сообщите нам об этом на указанный адрес электронной почты: [email protected].
Шрифт
-
0
+
Прокрутка
-
0
+
Стоп
Наверх