Аккорды «Rancid»

Rancid
В 1987 году Lookout Records выпустило семидюймовый мини-альбом 'Hectic' тогда еще мало кому известной калифорнийской команды Operation Ivy. Группу отличала исключительно британизированная музыка - жесткое анархичное и заводное ска, при этом дающее миллион очков форы своим заокеанским прототипам. Квартет состоял из четырех персон - Jesse (вокал), Lint (Tim Armstrong - гитара вокал), Matt McCall (Matt Freeman - бас, вокал) и Dave Mello (ударные, вокал), саксофонные партии исполнял Paul Bae, Lint и… Читать полностью... В 1987 году Lookout Records выпустило семидюймовый мини-альбом 'Hectic' тогда еще мало кому известной калифорнийской команды Operation Ivy. Группу отличала исключительно британизированная музыка - жесткое анархичное и заводное ска, при этом дающее миллион очков форы своим заокеанским прототипам. Квартет состоял из четырех персон - Jesse (вокал), Lint (Tim Armstrong - гитара вокал), Matt McCall (Matt Freeman - бас, вокал) и Dave Mello (ударные, вокал), саксофонные партии исполнял Paul Bae, Lint и Matt ранее бренчали в Basic Radio, в то время как Jesse отметился в S.A.G., которая позднее переделалась в Crimpshrine. Спустя два года ребята разродились своим первым и последним лонгплеем - классическим 'Energy' давшим сильнейший и решающий толчок развитию ска-кора по всей Америке. Operation Ivy мгновение были вознесены на Олимп американского панка, но к сожалению, дальнейшая судьба группы не сложилась - команду ожидал полный развал на самом пике творческого полного расцвета сил. Jesse отправился в Big Rig, Dave вместе со своим братом сотворили группу Schlong, a Tim Armstrong и Matt Freeman недолго думая скорешились с ударником Brett Reed и присвоили трио новое имя - Rancid. Ска было забыто, но не английский панк-рок. Rancid скрестили Oi! с калифорнийским драйвом и хуками и после семидюймовки для Lookout Records получили контракт с Epitaph Records. Теплый прием дебютного альбома Rancid еще не означал вселенского успеха, к моменту записи второго диска ‘Let's Go' ребята соблазнили еще одного гитариста Lars Frederiksen из U.K.Subs. Ничто не предвещало тога, что эти парни с английским акцентом, английскими ирокезами и американской пропиской смогут пробиться в суперзвезды благодаря своему матерому панк-року, столь же быстрому и агрессивному, сколь веселому и мелодичному. Но случилось фантастичное - как только Offspring и Green Day заполонили хит-парады, Rancid обнаружили, что их концерты стали собирать в десятки раз больше публики, чем он видели в самых страшных снах, в очередях за билетами стоят агенты звукозаписывающих фирм. Madonna объявила их своей любимой группой, а на вершину хит-парада MTV взлетел видеоклип к 'Sarvation'. Спустя более чем полгода после своего мало кем замеченного выхода, альбом 'Let's Go' стал суперхитом международного масштаба. Еще спустя несколько месяцев мир облетела новость, что Rancid подписали контракт с Epic, но уже на следующий день группа заявила, что передумала, и осталась на родном Epitaph, чтобы выпустить альбом, которому была уготована платиновая судьба - '...And Out Come The Wolves'. Rancid написали около сорока песен, но после двух месяцев сидения в студии было отобрано 19 лучших. Группа впала в детство - эта пластинка возвращает их к стилю Operation Ivy - ска-кору, но к сожалению без былого задора. Rancid пошли по стопам Clash - как в стилистическом, так и в коммерческом аспектах. К счастью, в новом тысячелетии настали перемены к лучшему… точнее - к старому. 22 песенный альбом 'Rancid' вновь продемонстрировал тягу к злобному и быстрому панку образца Rancid 93/94 годов или, на самом деле - образца британского Oi! панка начала восьмидесятых. Нынче Rancid породили армаду последователей, у которых почему-то популярность обратно пропорциональна качеству музыки, среди удачливых посетителей хит-парадов - группа Goldfinger, среди менее удачливых, но более сильных - Suicide Machines. Одной из участниц возрождения панк-рока в 90-х годах стала группа "Rancid" (ума не приложу, почему его нужно было возрождать - Авис) из маленького калифорнийского рабочего городишки Олбани. Двое ее будущих участников, Тим Армстронг и Мэтт Фриман во второй половине 80-х исполняли ска в проекте "Operation ivy" и даже добились относительной популярности у себя в округе. В 1989-м группа распалась, и несколько недель Тим и Мэтт поиграли в "Dance hall crashers". Затем Фриман присоединился к "MDC", а Армстронг начал бухать. Мэтт не стал смотреть, как друг превращается в алкоголика, а предложил ему занятие в виде создания новой банды. Тим все прикинул и согласился, что это будет лучший вариант, чем постоянно таскаться в магазин за очередной бутылкой. Для полного комплекта не хватало лишь только ударника, и Тим предложил для этого дела своего соседа по комнате Бретта Рида. Бретт к тому времени уже с полгода отлупил по барабанам и кое-какой опыт набрал. В составе трио "Rancid" отыграли серию концертов в течение двух месяцев, а затем выпустили свой первый сингл, изданный небольшим лейблом "Lookout!". В 1992-м под той же крышей вышел EP из пяти песен. Пластинка угодила в руки шефу "Epitaph records" Бретту Гурвицу. Тот увидел в "Rancid" большой потенциал, и предложил музыкантам заманчивый контракт, одним из пунктов в котором значилось, что коллектив оставляет за собой творческую свободу. В 1993-м группа выпустила дебютный альбом, после чего озадачилась поисками второго гитариста. Один раз на эту должность удалось привлечь Билли Джо Армстронга из "Green day", а потом ангажемент поступил бывшему участнику "UK subs" Ларсу Фредериксену. Однако Ларс на тот момент был занят своим проектом "Slip",и влился в ряды "Rancid" лишь после того, как его группа распалась. Его дебют состоялся на EP 1994 года "Radio Radio Radio". Следом в продаже появился альбом "Let's go", с помощью которого "Рэнсид" заявили о себе во весь голос. Песня "Salvation" с этого диска стала завсегдатаем эфиров, а сама пластинка получила "золото" и угодила в сотню лучших, заняв 95-е место в "Биллборде". Тут засуетились крупные записывающие компании и попытались было перекупить "Rancid", но калифорнийские ребята оказались стойкими и остались верны "Epitaph". Как выяснилось, коллектив сделал правильный выбор и следующий диск, "And out come the wolves", значился уже на 45-й позиции, а его продажи достигли "платиновой" отметки. Откатавшись в 1996-м в составе "Lollapalooza tour", музыканты позволили сделать себе передышку, во время которой потихоньку развлекались в других проектах. К студийной деятельности "Rancid" вернулись в 1998-м, приступив к записи "Life won't wait". Сессии проходили в разных местах от Сан-Франциско до Ямайки, причем в работе над альбомом принимало участие немалое количество гостей от вокалиста "Agnostic front" Роджера Мирета до популярной исполнительницы рэгги Буджу Бэнтон. Диск имел хороший успех у слушателей, чего нельзя было сказать о следующем релизе, снова озаглавленным просто "Rancid" и поднявшимся только до 68-й позиции чартов. Коммерческая удача вернулась к коллективу после альбома 2003 года "Indestructible". Эта работа стала весьма популярной не только в Америке, но во многих европейских странах, а также в Австралии. В лагере критиков до сих пор нет единодушия: одни считают Rancid еще одними, пусть и довольно талантливыми, подражателями Clash, другие упирают на политизированность их творчества, бьющую через край энергию, эффектные композиционные ходы. Как бы то ни было, стоит признать, что калифорнийцы Rancid все равно остаются одной из ключевых фигур реанимированного панка 90-х, изобилующего элементами ска и хардкора. Характерно, что они никогда не стремились стать коммерческой сенсацией, гораздо больше ценя независимость и творческую свободу. Это помогло им сохранить доверие своих преданных фанов даже тогда, когда панк начал мало-помалу выруливать на середину мейнстрима. Будущие основатели группы Rancid и большие фанаты панка Тим Армстронг (Tim Armstrong) и Мэтт Фримен (Matt Freeman) росли и учились вместе в небольшом рабочем городке Элбэни, в пригороде Беркли. Их первой командой, которая ставила перед собой серьезные цели и дала ребятам неоценимый опыт, стала группа Operation Ivy, созданная ими в 1987 году. Сегодня этих адептов ска-панка уже причисляют чуть ли не к лику святых. Гитарист и вокалист Армстронг скрывался под именем "Lint", бас-гитарист Фримен называл себя Мэттом Макколом, а компанию им составили барабанщик Дэйв Мелло (Dave Mello) и лид-вокалист Джесси Майклз (Jesse Michaels). В 1989 году группа Operation Ivy перестала существовать. Двое друзей на какое-то время присоединились к ска-панк-группе Dance Hall Crashers, потом попробовали поиграть в Downfall. Репетиции и выступления проходили по вечерам, а днем приходилось зарабатывать себе на жизнь. Несмотря на молодой возраст, отношения Тима Армстронга с алкоголем зашли уже настолько далеко, что ему пришлось лечиться от алкоголизма. Чтобы помочь товарищу устоять в этой неравной борьбе и переключить его внимание на то, что ему действительно интересно, Фримен предложил отказаться от дневной работы и отдавать все свободное время собственной музыкальной команде. Из этого дружеского жеста в 1991 году и выросла группа Rancid, принявшая в свои ряды также барабанщика Бретта Рида (Brett Reed), соседа Армстронга по квартире, хорошо знакомого им еще со времен расцвета Operation Ivy. Интенсивные репетиции позволили Rancid уже через считанные месяцы открыть гастрольный сезон и объездить с концертами Беркли и его окрестности. В 1992 году рекординговый лейбл Lookout! Records согласился опубликовать их дебютный ЕР "I'm Not the Only One", включавший пять песен. Как это часто случается, диск обладал относительной самостоятельной ценностью и мог послужить скорее приманкой для более крупной рыбы. Рыба клюнула - Бретт Гуревич (Brett Gurewitz), возглавлявший весьма уважаемый независимый лейбл Epitaph, предложил Rancid контракт на вполне комфортных условиях. В частности, музыканты получали самые широкие права по контролю над всем процессом создания своих альбомов. В 1993 году "реаниматоры панка" подготовили свой полноформатный дебют "Rancid", образец крепкого хардкор-панка, проносящегося на быстрых скоростях и заигрывающего с ранним британским панком. Для промо-тура команде понадобился второй гитарист. На одном из концертов им на помощь пришел даже Билли Джо Армстронг (Billie Joe Armstrong), гитарист Green Day. Но в качестве постоянного участника музыкантам хотелось видеть в составе Ларса Фредериксена (Lars Frederiksen), который в прошлом играл в группе UK Subs, а в начале 90-х числился в команде Slip. Сначала Фредериксен отклонил приглашение присоединиться к группе, но как только Slip распались, изменил свое решение. И теперь уже квартет Rancid в составе Армстронг - Фримен - Рид - Фредериксен отправился в концертный тур сначала по США, а затем и по Европе. Состав: * Тим Армстронг — гитара, вокал; так же вокал; гитара в группе Transplants * Мэт Фримэн — бас, бэк-вокал; * Дэвид Стейнэкерт — ударные; * Ларс Фредериксен — гитара, вокал; так же имеет сольный проект Lars Frederiksen and the Bastards * Бретт Рид временно покинул группу в ноябре 2006 года, его место занял Бренден Стейнкерт из группы The Used. Дискография: Rancid 1993 Let's Go 1994 ...And Out Come The Wolves 1995 Life Won’t Wait 1998 Rancid 2000 Indestructible 2003 Let The Dominoes Fall 2009 Скрыть...
Популярные аккорды Rancid:
алфавиту | просмотрам | случайно
  • intro 
     E------------------------------------------------------ pick these then after
     B------------------------------------------------------ awhile play the full 
     G------------7------5------4---------------------------…
  • Intro:
    G:---------------------------------------------------------
    D:---------------------------------------------------------
    A:-----------3---------5--3--------------------------------
    E:-3----3---------3----------3--3-3-3-3-3-3-3-3-3-OI…
  • intro:
              
              
              
                took the sixth street bus.........
              
              e 3-3-3-3-x-3-3-3-3-x-1-1-1-1-x-1-1-1-1-x-3-3-3-3-x-1-1-1-1-x-3-3-3-3-x-3-3-3-3
              a 3-3-3-3-x-3-3-3-3-x-3-3-3-3-x-3-3-3-3-x-5-5-5-5-x-3-3-3-3-x-3-3-3-3-x-3-3-3-3…
  • -Guit1-
    
    00:00
    |--------------------|
    |--------------------| X7
    |------5-5-----------|
    |-5-5--3-3--5-5------|
    |-3-3-------3-3--5-5-| 
    |----------------3-3-|
    
    -guit2-
    00:03
    |-------|
    |-------|
    |-4-5-4-|
    |-2-3-2-|
    |-------|
    |-------|
    
    00:06
    |-----------------------------------|
    |-----------------------------------|
    |-5454545454545-77-5454545454545-77-|
    |-----------------------------------|
    |-----------------------------------|
    |-----------------------------------|
    
    -guit1-
    00:20
    |------|
    |------|
    |------|
    |------|
    |-3~~4-|
    |-1~~3-|
    00:22
    |--------------------|
    |--------------------|…
  • Intro
    
        G---------------------------------------------------------------------
        D---------------------------------------------------------------------
        A---0-3-0----------0-3-5-----5-5-4-4-2-2-0----------------------------…
  • Intro
    
    e--2-2-2---------2-2-2--7-7-7------|
    B--3-3-3---------3-3-3--7-7-7------|
    G--4-4-4--1-1-1--4-4-4--9-9-9------|
    D--4-4-4--2-2-2--4-4-4--9-9-9------|
    A--2-2-2--2-2-2--2-2-2--7-7-7------|
    E----------------------------------|
    
    Verse…
  • Intrument: Guitar
    Guitar: Lars Frederiksen 
    Guitar: Tim Armstrong
    
    INTRO: 
    C B A G F E C (2x) 
    
    VERSE: 
    C D Fii C 
    I can tell you how it will go down, but only you can tell me how it will end 
    C D Fii C 
    All systems can…
  • VERSES 1,2
    
    G:-----------------------0-0-------------------0-2-2-0-----0-0-------
    D:-----------------0-0--------2-0-------2-2-------------2-------2-0--
    A:---------0-0-3-------------------3-3----------------------------------
    E:---1-1------------------------------------------------------------------
    
    VERSE…
  • Standard Tuning: EBGDAE
    
    Verses:
    E---------------
    B---------------
    G-7-----5-------
    D-7-----5--5----
    A-5-----3--5----
    E----------3---- (2x)
    
    E--------------------------
    B--------------------------
    G-77777777--5555-----------
    D-77777777--5555--5555-----
    A-55555555--3333--5555-----
    E-----------------3333-----…
  • Intro: (Do the xx palm muting when the bass plays)
    E--------x-x-x-------x-x-x-------x-x-x-------|
    B--------x-x-x-------x-x-x-------x-x-x-------|
    G--12-15-x-x-x-12-15-x-x-x-12-15-x-x-x-12-15-|
    D--------x-x-x-------x-x-x-------x-x-x-------|
    A--------x-x-x-------x-x-x-------x-x-x-------|
    E--------x-x-x-------x-x-x-------x-x-x-------|
    
    Chorus:…
  • Verse.
    e|--------------------------------------------------------------------|
    B|--------------------------------------------------------------------|
    G|-555--------6666----------------------------------------------------|
    D|-555-333-66-6666----------------------------------------------------|
    A|-333-333-66-4444----------------------------------------------------|
    E|-----111-44---------------------------------------------------------|…
  • Intro:
    
    G:----------------------------------------------------------------------
    D:-------------/5-3---------------------2-3-4-5----5-5---5-3---3--------
    A:---0-3-4-5--------5-3-5-----0-3-4-5------------------------5---5-3----
    E:-3------------------------3----------------------------------------5-3
    
    Chorus…
  • Intro:
    
         A  C  G  A    A  C  G  A    A C G A C G A C G F
    E-|---------------------------------------------------------------------------|
    B-|---------------------------------------------------------------------------|
    G-|--2--5----------2--5----------2-5---2-5---2-5------------------------------|
    D-|--2--5--5--7----2--5--5--7----2-5-5-2-5-5-2-5-5-3--------------------------|
    A-|--0--3--5--7----0--3--5--7----0-3-5-0-3-5-0-3-5-3--------------------------|
    E-|--------3--5----------3--5--------3-----3-----3-1--------------------------|
    
    Chorus:…
  • Intro
    E-3----6-6--3-------3---6-6--3-----------------------
    B-3----5-5--3---5---3---5-5--3-----------------------
    G-5b7-------5b7-5-5-5b7------0----Play a few times---
    D----------------------------------------------------
    A----------------------------------------------------
    E----------------------------------------------------
    
    Verse
    E----------------------------------------------------
    B----------------------------------------------------
    G-5*----5*----7^-------------------------------------
    D-5--5*-5--5^-7---x2---------------------------------
    A-3--5--3--5--5--------------------------------------
    E----3-----3-----------------------------------------
    
    Chorus
    E----------------------------------------------------
    B----------------------------------------------------
    G----7-----5-----7^----------------------------------
    D-5--7--5--5--5^-7--5*-------------------------------
    A-5--5--5--3--5--5--5--------------------------------
    E-3-----3-----3-----3--------------------------------…
  • INTRO AND VERSES:
    
    e|-----------------------------------------------------------|
    B|-----------------------------------------------------------|
    G|-10-10-11-11-10--------------------------------------------|
    D|-11-11-11-11-11--------------------------------------------|play…
  • Verse - 2x
    
    G -                                           0 2 0 2 2 2 0 0 0
    D -                                         2                   3 3 3
    A -     0 0 1 0     0 0 1 0 3 3   0 1 0 3 3
    E - 1 1         1 1…
  • tuning   standard
     
    |--------3--3--6------------|
    |--------3--4--6------------|
    |--------3--5--7--8888875---|
    |--------5--5--8---------8--| x 2
    |--------5--3--8------------|
    |-6-5-3--3-----6------------|
     
    |---------------------------------------|
    |---------------------------------------|
    |-------------------88888888------------|
    |-88888888-55555555-88888888-88888888---|…
  • A
    Come on baby won't you show me what you got there
    D              E       
    I want your salvation whoah
    A
    Come on baby won't you show me what you got there
    D              E       
    I want your salvation whoah
    
    A…
  • Intro riff:
    e----------------------------------
    B----------------------------------
    G-5-(slide to)-8-7-5-5-3-2-3-2-2---
    D--------------------------------3-
    A----------------------------------
    E----------------------------------
    
    E5…
  • INTRO  
    E :------------------------------------------------------------------
    B :------------------------------------------------------------------
    G :-7-7-7-7--10--12--7-7-7-7--10--12--7-7-7-7--10--12---7------------
    D…
  • Intro: (Repeat once, Pick quickly more than numbers are repeated)
    G:-----------------------------
    D:-----------------------------
    A:3-3-3-3---------3-3-5--------
    E:--------5-5-5-5-------1-1-1-1
    
    Chorus: (Repeat once)
    G:----------------
    D:----------------
    A:3-----------3---
    E:----3---1-------
    
    Verse:
    G:---------------------------------
    D:---------------------------------
    A:3-3-3-3-3-3-3-2-1-1-1-3---0-1-2-3
    E:------------------------1--------
    
    Guitar…
  • tuning   standard
    
     
    |-----------------------|
    |-----------------------|
    |------7777-------------|
    |-4444-7777-9999-7777---|
    |-4444-5555-9999-7777---|
    |-2222------7777-5555---|
    
    |---------|
    |---------|
    |-6---4---|
    |-6---4---|
    |-4---2---|
    |---------|
    
    |------------------------------|
    |------------------------------|
    |-------7----------------7-----|
    |-4-----7-x16-9-----7----7-x8--|
    |-4-x16-5-----9-x16-7-x8-5-----|
    |-2-----------7-----5----------|
    (play…
  • Intro/Chorus:
    G:---------------------------------------------------------
    D:---------------------------------------------------------
    A:-------------------------------------7-5-----------------
    E:--4h5-5-5-4h5-5-5-4h5-5-5--------------------------------
    
    Verse:
    G:----------------------------------------------------------
    D:--------------------------3--2-0--------------------------
    A:--3-3-2h3-3-3-5--5---------3----------------------2-0-2-3-
    E:-----------------------------------1-1-0h1-1-3--3---------
    
    Pre-Chorus…
  • Verse (repeat first part)
    
         G:------------------------------------------------|---------
    
         D:---------------00-11-33-------------------------|---------
    
         A:---00-11-33-11----------33-11-00----33-11-00----|-1>--0>--…
  • Tuning Half-step down(Eb,Ab,Db,Gb,Bb,Eb)
    
    
    |--------------------------------------------------|
    |--------------------------------------------------|
    |--------------------------------------------------|
    |--------------------------------11-11-12-12-12-|
    |-9-9-9-9-9-9-9-9-7-7-7-12-12-12-------------------|
    |--------------------------------------------------|
    pm.…
  • G:-----------------------------------------------------------------
    D:---------2-0-----------------------------2-0---------------------
    A:-------------2-0-3-2-3-4-5-3-2-0-------------2-0-5-3-2-0---2-3-5-
    E:-3-3-333-------------------------3-3-333-----------------3-------
    
    G:-----------------------------------------------------------------
    D:---------2-0-----------------------------2-0---------------------
    A:-------------2-0-3-2-3-4-5-3-2-0-------------2-0-5-3-2-0---2-3-4-
    E:-3-3-333-------------------------3-3-333-----------------3-------…
  • Intro:
    G:--------------------
    D:--------------------
    A:--------------------
    E:--3-------------3--
    
    Chorus:
    G:----------------------------------------------
    D:----------------------------------------------
    A:--3-2-0------2-3-4-5-3-2-0-----2-3------------
    E:--------3-0----------------3-0----------------
    
    Verse:
    G:----------------------------------------------
    D:----------------------------------------------
    A:----0-2-0-3-2-0------3-5-3-2-0----------------
    E:--3-------------3-0--------------3-0----------
    
    Bridge:
    G:----------------------------------------------
    D:----------------------------------------------
    A:--3-3-33-3--2-2-22-2--0-0-00-0---00-11-22-----
    E:------------------------------------------3---…
  • Intro (Repeat 2x)
    G:-42-----------42--------------42----------------------
    D:---4-2-0-242----4-2-0-222224----4-2-0-242-754---------
    A:2------------2---------------2---------------57543----
    E:------------------------------------------------------
    
    Repeat…
  • Intro:
    e|-----------------------|
    b|-----------------------|
    g|-----------------------|
    d|-----------------------|(4x)
    a|-----------------------|
    E|-0-0-0h2-2-3-3-3-2-2-2-|
    
    Main Rythem (chorus):
    e|-----------------------|
    b|-----------------------|
    g|-----------------------|…
  • Verse:(repeat first part go to next and repeat)
    G--------------------------------*-------------------------------------
    D--------------------------------*-------------------------------------
    A--3-3-3-3----------1-0-1-2--3-*-3-3-3-3-----------1-1-1-1----3-3-3-3-
    E----------1-1-1-1---------------*------------1-1-1-1-------------------
    
    Chorus:
    G-------------------------------------------------------------------
    D--------------2----------------------------------------------------
    A-----------3-----5-4--1-1-1-0-1-3-------------3-3-3-3---1-1-1-1----
    E--1-1-1-1----------------------------1-1-1-1-----------------------
    
    
    Bridge:
    G----------------------------------
    D----------------------------------
    A----3-3-3-3-----------1-1-1-2-3---
    E-------------1-1-1-1--------------…
  • Intro:
    e|--3--|
    B|--3--|
    G|--0--|
    D|--0--|
    A|--2--|
    E|--3--|
    Intro part 2:(Guitar 1)
    e|---------------------------|
    B|---------------------------|
    G|----0-----0-----0-----0----|
    D|------0-----0-----0-----0--|
    A|--------2-----3------------|
    E|--3-----------------3------|
    Guitar…
  • VERSE:
            [D]Hangin' out with Lars down on [C] 6th street
            He knew that I was in [B] trouble
            I was feeling much like the [A] devil
            There was something burning deep inside of [G] me
            Ran…
  • Intro
    -------------------------------|
    -------------------------------|
    ---------7-----7--8--9-9-0-0-7-|
    ---7--9------9-----------------|
    
    Here is the intro, it sounds much better the the other tabs on here
    
    -------------------------------|
    -------------------------------|
    ---------7-----7--8--9-9-0-0-7-|
    ---7--9------9-----------------|
    -------------------------------|
    -------------------------------|
    ---------7-----7--8--9-9-0-0-7-|
    ---7--9------9-----------------|
    -------------------------------|
    -------------------------------|
    ---------7-----7--8--9-9-0-0-7-|
    ---7--9------9-----------------|…
  • Intro:
       A     A     A/D   E E
    E--5-x-x-5-x-x-5/5-x-7-9-----------|
    B--5-x-x-5-x-x-5/7-x-9-9-----------|
    G--6-x-x-6-x-x-6/7-x-9-9-----------|
    D--7-x-x-7-x-x-7/7-x-9-9-----------|
    A----------------------------------|
    E----------------------------------|
    
    Verse:
    A…
  • Intro:
    A:-------------5--5-5-5-5-5-5-5-5-5-5
    E:3---3---3--------------------------
    
    Beginning, Middle, and End Instrumental: (Repeat once)
    G:------------------------------------------------------------------
    D:------------------------------------------------------------------
    A:--------3----------------3----------------3-------5-5-5-5-5-5-5-5-
    E:3-3-3-3----3--0--3-3-3-3----3--0--3-3-3-3----3--0-----------------
    
    Verse:…
  • Intro - ok you just play this for a long time until the bass hits the third riff 
    
    E|4--3-----------------------------------
    A|6--5--3--3-----------------------------
    D|------5--5-----------------------------
    G|---------------------------------------
    B|---------------------------------------
    E|---------------------------------------
    
    Riff…
  • B    E    F#   A    Eb   D
    e---X----X----X----X----X----X----
    B---X----X----X----X----X----X----
    G---X----9----X----X----8----7----
    D---9----9----4----7----8----7----
    A---9----7----4----7----6----5----
    E---7----X----2----5----X----X----
    Intro…
  • Standard Tuning
    
    Intro 1 x1
    G|--------------------------------|
    D|--------------------------------|
    A|-0345--------0345---5---5-------|
    E|----------------------------5--3|
    
    Intro 2 x2
    G|-------------------------------|
    D|-------------------------------|
    A|03455------55------55----------|
    E|-----333203--333203--333203553-|
    
    Verse…
  • VERSE
    
    e--------------------
    B--------------------
    G--------------------
    D7-5-----5-7---------
    A5-3-5-5-3-5---------
    E----3-3-------------
    
    CHORUS(let chords ring)
    
    e---------------------
    B---------------------
    G---------------------
    D-7-------------------
    A-5-7-5---------------
    E---5-3---------------
    
    the…
  • California sun has sunk
               Am      G           C
    Behind the Anaheim Hills, here comes the night
          C       F
    I was high on junk
            Am            G          C
    And the warm winds of Santa Anna feel all right…
  • Intro:
    G:----------------
    D:----------------
    A:----------6-8-6-
    E:8-8-8-8-8------- x4
    
    Chorus:
    G:---------------------
    D:---------------------
    A:10-10-10-10-10-9-8-7-
    E:---------------------  x4
    
    Verse:
    G:------------------------------------------------------------------------
    D:10-9-8-7-------------7-8-9-10-9-8-7-10-9-8-7----------------------------…
  • Intro-
    
    G
    D                   5 7 5                   9 9  8  7 7
    A 7 7 5     5 7          7 5                              5
    E          7                      7 6 5
    
    G
    D                    5 7 5                  9 9   9…
  • Tuning: Standard (E,A,D,G,B,e)
    
    Intro
    ------------------------------------------
    ------------------------------------------   Then repeat 
    -------9-9-----------9-9-9----------------   same chords 
    -7-7---9-9---7-7-7---9-9-9----------------…
  • Intro:
    G:--------14-16-14-16-16----14---
    D:--14h16----------------16------
    A:-------------------------------
    E:-------------------------------
    
    Intro Cont.:
    G:-----14-16-14-16-16---------------------------
    D:--16----------------16-14---------------------
    A:----------------------------------------------
    E:---------------------------9-9-9-9-9-9-9-9---
    
    Verse:
    G:----------7-----------------------------------
    D:------7-9---99-77----77-----------------------
    A:--7h9-------------999--999-7--7>-9>---7-------
    E:-----------------------------------9-9--------
    
    Chorus…
  • Standard tuning, all chords are power chords.
    
    Intro riff
    |-----5------------8------------|
    |-0/4-----6----0/5------/5-10-8-|
    |-------------------------------|
    |-------------------------------|
    |-------------------------------|
    |-------------------------------|play…
  • INTRO
    CHORUS X2
    VERSE X2 palm muted
    CHORUS X1S
    SOLO X1
    CHORUS X2
    
    
    E-----------------------------------------------------------------
    B-----------------------------------------------------------------
    G---2-h4-2-0-0-----2-h4-2-0-0---0---0-2-h4-2-0-0------------------
    D---0----0-0-0-----0----0-0-0-2---2---0----0-0-0------------------
    A-----------------------------------------------------------------
    E-----------------------------------------------------------------CHORUS
    
    E-----------------------------------------------------------------
    B-----------------------------------------------------------------
    G-55-44-22--------------------------------------------------------
    D-55-44-22-44/55555555--------------------------------------------
    A-33-22-00-44/55555555--------------------------------------------
    E----------22/33333333--------------------------------------------VRESE
    
    E-------------------------------------------------------------------
    B-------------------------------------------------------------------
    G------------5-(555555)-----------------------3-(555555)-----------
    D-5-(555555)-5-(555555)-5-(555555)-5-(555555)-3-(555555)-5-(555555)-
    A-5-(555555)-3-(333333)-5-(555555)-5-(555555)-5-(555555)-5-(555555)-
    E-3-(333333)------PM----3-(333333)-3-(333333)------PM----3-(333333)-…
  • INTRO
    G-----------I
    D-----------I
    A-2-3333333 I X 4
    E-----------I
    
    VERSE
    G---------2-4-5-5-4-2--------------------------------------I
    D----2-3-5-----------5-3-2----------------------2-3-5-3-2--I
    A-3-5----------------------5-3----3-5-3-2---3-5------------I
    E------------------------------3-5---------3---------------I
    
    PRE-CHORUS
    G-----------------------------
    D---3---3----5----5---5-3-2-0
    A-0---0---3-------------------
    E-----------------------------
    
    CHORUS
    G--------------------
    D---------3333-55555-
    A-33333333-----------…
  • Intro:
    E-------------------------------------------|
    B-------------------------------------------|
    G--7-------5-------7-6-7-------5-------7-6--|
    D--7---3---5---5---7-6-7---3---5---5---7-6--|
    A--5---3---3---5---5-4-5---3---3---5---5-4--|
    E------1-------3-----------1-------3--------|…
  • INTRO
    
    G---------------------------------------------------------------------------
    D---------------------------------------------------------------------------
    A---55-5555--------------------55-5555--55-5555--------------------55-5555--
    E------------55-5555--33-3333--------------------55-5555--33-3333-----------
    
    G-----------
    D-----------
    A-----------
    E---55-3-22-
    
    				VERSE…
  • Verse: (repeated)
        G   F   C   G
    E---3---1---3---3---|
    B---3---1---5---3---|
    G---4---2---5---4---|
    D---5---3---5---5---|
    A-------------------|
    E-------------------|
    
    Chorus: One guitar plays the chords, barred, and the…
  • Verse 
    C                     Bb       F
    It ain't impossible it ain't easy
    C              Bb       F
    Opportunities shifting here
    C                 Bb       F
    So far the strategy aint working 
         C                      Bb…
  • s= slide
    (figure out strumming)
    
    rhythm intro- w/ distortion of course
    E---------------------------
    B---------------------------
    G---------888-888-----------
    D-555-888-888-888-----------
    A-555-888-666-666-----------
    e-333-666-------------------
    
    lead…
  • INTRO/VERSE - listen to it for the palm muting rhythm
    E :----------------------------------------------------------------------
    B :----------------------------------------------------------------------
    G :-----------------------------------3-3-3-3-3-3-3-3--5-5-5-5-5--3~-----
    D…
  • INTRO (also played in the chorus)
    E------------------------------------------------------------
    B------------------------------------------------------------
    G-77765------------------------------------------------------
    D-77675------------------------------------------------------a…
  • e|------------------------|
    B|------------------------|palm muted
    G|----5>>-----------------|
    D|----5>>------------3>>--|
    A|----3>>----------0-3>>--|
    E|-----------------0-1>>--|
      California sun has sunk
    
    e|-----------------------------------------|
    B|-----------------------------------------|palm…
  • 1st 1/2 of Verse:
    G:----------------------------------
    D:---------0h2p0--------------------
    A:-------2------------3--2-0--------
    E:--3--3---------5--5--------3------
    Cont:
    G:----------------------------------
    D:-------2-p0----------2-p0---------
    A:--3--3------2p0-----------2p0-----
    E:----------------3--3--------------
    2nd…
  • Intro
    e:-----------------------------------------------------------------
    b:-----------------------------------------------------------------
    g:----11--14--11---------------------------------------------------
    d:-12------------14--12----11--14--11------------------------12(8x)…
  • Tuning Standard
    
    
    |------------------------------------------|
    |------------------------------------------|
    |-7777------7777-----------7777-9999-------|
    |-7777-7777-7777-5555-5555-7777-9999-7777--|  x 2
    |-5555-7777-5555-5555-5555-5555-7777-7777--|
    |------5555------3333-3333-----------5555--|
    
    
    |-------------------------------------------------------------------------|
    |-------------------------------------------------------------------------|
    |-7-777777----------7-777777-------------------7-777777-9-999999----------|
    |-7-777777-7-777777-7-777777-5-555555-5-555555-7-777777-9-999999-5-555555-|
    |-5-555555-7-777777-5-555555-5-555555-5-555555-5-555555-7-777777-5-555555-|
    |----------5-555555----------3-333333-3-333333-------------------5-555555-|
    P.M…
  • **when you strum, listen to the song for timing 
    
    / = slide down 
    > = strum 
    
    intro solo 
    G:---------------3---------------3-------3-5-8-5-3----------- 
    D:-----3-5-3-------5-3-5---5-3-5---5-3-5-----------5-3-5-3--- 
    A:---5-------5---------------------------------------------3-…
  • Intro-
    
    G   11 9 11        11      8
    D              11 8      8 9    11
    A 9
    E
    
    REPEAT A BUNCH OF TIMES
    
    Verse-
    
    A | D | E | D
    
    REPEAT
    
    Chorus-
    
    G    5
    D 7    7 5               5
    A             7 6 5 4 7    7 6 5 4    4 5
    E…
  • (Feedback during bass intro, then)
    
    *Intro*
    E ----------------------------------------------------------------------------------
    B ----------------------------------------------------------------------------------
    G -5---------12----------14----------11-----------5---------12----------11----------
    D…
  • Intro First Part (Gtr 1)
    E----------------------------------------------------------------------
    B----------------------------------------------------------------------
    G----8---------12------------------------------------------------------
    D-5--8--8--10--12------------------------------------------------------
    A-5--6--8--10--10------------------------------------------------------
    E-3-----6--8-----------------------------------------------------------
    
    Intro…
  • Tuning:standard
    
    Intro:
    e|--------------------------------------------------------------------------
    B|--------------------------------------------------------------------------
    G|-------5-5~---5-7-7b8-7b8-7b8-7b8-7br8(7)p5-5---5-5-------5-7-7s9-7-5-5---
    D|---5h7------7----------------------------------------7-5-7----------------
    A|--------------------------------------------------------------------------
    E|--------------------------------------------------------------------------chorus:…
  • Verse/Intro
    
    e---------------------------------------
    B---------------------------------------
    G----------------------------9-9-9-9-8-8
    D9-9-9-9-9-9-9-9--9-9-9-9-9--7-7-7-7-6-6
    A7-7-7-7-7-7-7-7--6-6-6-6-6-------------
    E---------------------------------------…
  • Tuning:standard
    
    Intro:
       Nah Nah Nah Nah-  Nah Nah Nah Nah-  Nah Nah Nah Nah-  Nah Nah Nah Nah-
    e|---------------------------------------------------------------------------|
    B|---------------------------------------------------------------------------|
    G|--9------------------------------------9-----------------------------------|
    D|--9-----------------9------------------9----------------7------------------|
    A|--7-----------------9------------------7----------------7------------------|
    E|--------------------7-----------------------------------5------------------|…
  • Intro and Ending
    G: ----------------------
    D: ----------------------
    A: -4-4-4-4-4-4-4--------
    E: ----------------------
    
    Intro cont.
    G: --------------------------------------
    D: --------------------------------------
    A:…
  • e:---------------------------------------------------------------
    B:---------------------------------------------------------------
    G:-5-5-5-5-5--------------------------4-4------------------------
    D:-5-5-5-5-5--5-5-5-5-5---3-3-3-3-3---4-4---5-5-5----------------
    A:-7-7-7-7-7--5-5-5-5-5---3-3-3-3-3---2-2---5-5-5----------------
    E:------------7-7-7-7-7---5-5-5-5-5---------7-7-7----------------
    
    e:---------------------------------------------------------------
    B:---------------------------------------------------------------
    G:-5----------4--------------------------------------------------
    D:-5----------4--------------------------------------------------
    A:-7----------2--------------------------------------------------
    E:---------------------------------------------------------------…
  • F    F#   G    G#   A    A#   B    C    C#   D
    e|---X----X----X----X----X----X----X----X----X----X----|
    B|---X----X----X----X----X----X----X----X----X----X----|
    G|---X----X----X----X----X----3----4----5----6----7----|
    D|---3----4----5----6----7----3----4----5----6----7----|
    A|---3----4----5----6----7----1----2----3----4----5----|
    E|---1----2----3----4----5----X----X----X----X----X----|
    
    F#…
  • intro:
    G
    D
    A            2           2          22          2222
    E     2            2          22        2222
        interlude
    G
    D                1 4 1
    A    1 4 1 22              repete a few times
    E  2
        chorus 2X
    G
    D
    
    G---------------------------------------7--------------------------------------|
    -------------------------------------------------------------------------------|
    D--------------------------------------------------7---------5-----------------|
    -------------------------------------------------------------------------------|
    A---5-------------------------5----------------------------------------2-------|
    -------------------------------------------------------------------------------|
    E-----------5-------3----------------------------------------------------------|
    -------------------------------------------------------------------------------|…
  • tuning   standard
    
     
    |---3-3--1-0----0--------3----3-----|
    |-3-3-3------3----0---3/5--3/5-3/5--|
    |---4-4---------------0----0---0----|
    |---5-5-----------------------------|
    |-----------------------------------|
    |-----------------------------------|…
  • Main RIFF, verse, Chorus:
          D          BM         G        A
    e|-2-2-2-2-2------------3-3-3-3-3-|----------|
    B|-3-3-3-3-3--3-3-3-3-3-0-0-0-0-0-|-2--------|
    G|-2-2-2-2-2--4-4-4-4-4-0-0-0-0-0-|-2--------|
    D|-0-0-0-0-0--4-4-4-4-4-0-0-0-0-0-|-2--------|
    A|------------2-2-2-2-2-2-2-2-2-2-|----------|
    E|----------------------3-3-3-3-3-|----------|…
  • ---------10----------------------------------------------------------
    -10b(12)----10r(10)------------10-----------------------------10-----
    ------------------------9b(11)----9-7--------7---7-9-7-9b(11)----9-7-
    -------------------------------------------9---9---------------------
    ---------------------------------------------------------------------
    ---------------------------------------------------------------------…
  • Riff #1
    
    G:-----------------------------------------------------
    D:--------------3-0-3-0-3-5----------------3-0-3-0-3-5-
    A:--------2-3-5----------------------2-3-5-------------
    E:-3----3---------------------3----3-------------------
    
    Riff…
  • VERSE 
    D             C      Bb G
    White Stones, Queens 1974 
    D               C          Bb              G
    Fathers talking shit motherfucker slam the door 
    D                   C             Bb          G
    Hittin' the streets…
  • INTRO:
    G#     C#  G#
    G#     A#  D#
    G#  C  C#  E
    G#  F  A# D# G#
    CHORUS:
    G#                              C#               G#
    Blackhawk down, blackhawk down, blackhawk down below
    G#                              A#…
  • INTRO
    
    E------------------------------------------------------------
    B------------------------------------------------------------
    G--7-10-12-77-10-12---7-6-5----------------------------------
    D--5-10-12-77-10-12---7-6-5-77-6-5---------------------------
    A--5--8-10-55--8-10---5-4-3-77-6-5---------------------------
    E---------------------------55-4-3---------------------------
    
    Surf…
  • [/=slide]
    [=slide with plectrum]
    
    Intro
    E|--------------------------------------------|
    B|--------------------------------------------|
    G|--------------------------------------------|
    D||
    A||
    E||
    
    Verse
    E|-----/888-----/888-----/888-----/888--------|
    B|-----/888-----/888-----/888-----/888--------|
    G|-----/--------/--------/--------/-----------|
    D|--222/-----222/-----222/-----222/-----------|
    A|--222/-----222/-----222/-----222/-----------|
    E|--xxx/-----xxx/-----xxx/-----xxx/-----------|
    If…
  • Key: Palm Mute= .
      
    Guitar 1 - Tim
    Guitar 2 - Lars
    
    
    Chorus (Both Guitars)
    e|--------------------------------------------------------------------------
    B|--------------------------------------------------------------------------
    G|-8-8-8-8-8-8-8-8---------8-8-8-8----------------------------------8-8-8-8-…
  • INTRO  
    E :-------------------------
    B :-------------------------
    G :-7-7-7-7-7--9------------
    D :-7-7-7-7-7--9------------     [X4]
    A :-5-5-5-5-5--7------------
    E :-------------------------
    
    VERSE
    E :-----------------------------------------------------------------------
    B…
  • Standard Tuning (EADGBe)
    
     
    Intro: 
              |---------------------|
              |---------------------|
              |---------------------|
    (feedback)|-5=(ring out)==10/8-| 
              |-5=============10/8-|
              |-3==============8/6-|
    
    Intro/Verse1:
    |-----------------|
    |-----------------|
    |---8---8---8-5-7-|
    |-5-8-5-8-5-8-5-7-|…
  • =0D
    this is a really rad punk song off Rancid's second album, and i thought i=
    t
     would help some people out if i post this!
    =0D
    CHORDS
    =0D
    
        G     C     D       G5    Cadd9        F      E
     =
    
    |-----------------------3-------3------------------------|
    |-----------------------3-------3------------------------|
    |---------5-----7-------0-------0-----------------9------|
    |---5-----5-----7-------0-------2---------3-------9------|
    |---5-----3-----5-------2-------3---------3-------7------|
    |---3-------------------3-----------------1--------------|
    =0D
    
    start…
  • INTRO
    
    G:--------------------------------------------------------
    D:---------------------------------------------------------
    A:---5~~~4~~~2~~~1~~~0----0----0----0--------
    E:-------------------------------------3----3----3----3-----
    
    VERSE
    
    G:--------------------------
    D:---------------------------
    A:---5-5-4>--2-2-1>----
    E:---------------------------
    
    CHORUS
    
    G:-------------------------
    D:--------------------------
    A:--------------------------
    E:---5-5-3>--5-5-3>----…
  • Intro 
    G|--------------------------------------2-------|
    D|--7754422---------1-2-544-2--------245-542----|
    A|----------5545545----------54-0-245-------542-|
    E|---------------------------------------------5|
    
    Verse (instrumental)
    G|---------------------------------------|
    D|---------------------------------------|
    A|---------------------------------------|
    E|---5-3-5-3-5-3-5-3-5-5-3-5-3-5-3-5-3-5-|
    
    Verse…
  • INTRO
    G---------------------------------------------------------------------------------
    D---------------------------------------------------------------------------------
    A-3-3-3-2-1-0-1-3-------------1-2-3-3-3-3-3-3-1-3-------------1-2-3-3-3-3-3-3-1-3-
    E-----------------1-1-1-1-1-1---------------------1-1-1-1-1-1---------------------
    G---------------------------------
    D---------------------------------
    A-1-1-1-1-1-1---1-3-3-3-2-1-0-1-3-
    E-------------3-------------------
    VERSE
    G-----------------------------------------------------------------
    D---------------------------------------------------0-1-2-3-3-0-3-
    A---------3-3-3-2-1-1-1-3-----------------3-3-3-2-1---------------
    E-1-1-1-3-----------------1-1-1-1-1-1-1-3-------------------------
    BRIDGE
    G-------------------------------------------
    D-------------------------------------------
    A-1-1-1-1-1-1-1-1-1-1-1-1-1-1-1-2-3-2-3-2-3-
    E-------------------------------------------
    CHORUS
    G-----------------------------------------------------------------------------
    D-----------------------------------------------------------------------------
    A---------------5-3-3-3-3-3-3---3---------------5-3-3-3-3-3-3---3-1-1-1-1-1-1-
    E-1-1-1-1-1-1-5---------------5---1-1-1-1-1-1-5---------------5---------------
    G---------------------------------------------------------------
    D---------------------------------------------------------------
    A---1-3-3-3-3-3-3---3-1-1-1-1-1-1---1-3-3-3-3-3-3-3-3-2-1-0-1-3-
    E-3---------------3---------------3-----------------------------…
  • Main Riff
    G------------------------3-----
    D------2-4--4-2------2-4---4-2-
    A-4--4----------4--4-----------
    E------------------------------
    
    Other Part
    G-----------------------------
    D-----------------------------
    A-6-6-66666--5-5-55555--------
    E-----------------------------
    
    End…
  • Intro(play fast)
    G|-----------------------------------------------|
    D|-----------------------------------------------|
    A|-4>--------------4>----------------------------|
    E|----4-0-3-0-2-0>----4-0-3-0-2-0>---------------|
    
    Verse…
  • G:-----------6-------------6-------------6-------------6---
    D:-----666-9---9-----666-9---9-----666-9---9-----666-9---9-
    A:-7-7-----------7-7-----------7-7-----------7-7-----------
    E:---------------------------------------------------------…
  • Intro
    G---17---12---14---10-------------------------------------------------------------------------------------------------------
    D-------------------------------------------------------------------------------------------------------------------------------
    A--------------------------1-2-3-----3---------------1-2-3----3----------------1-2-3----3------------1-2-3--------------
    E----------------------------------------3--5--1------------------3--5--1--------------------3--5--1----------1-1-1-1-1-1
    
    On…
  • Tuning: EBGDAE
     Chords: G E C D   * Open and Power used *
    
     =Listen to the song to hear chords differ / And timing=
    
    Verse 
    e|-------------------------------------------------------|
    B|-------------------------------------------------------|
    G|-------------------------------------------------------|
    D|---------------------------------7-7-7-7---------------|
    A|--5-5-5-5-5-5-5-5------2-2-2-2---5-5-5-5---5-5-5-5-----|
    E|--3-3-3-3-3-3-3-3------0-0-0-0-------------3-3-3-3-----|…
  • Intro
    G------------3-6------1-1-4-4-1-1---
    D-----1-4--4------2-2---------------
    A---2-------------------------------
    E-----------------------------------
    
    Verse
    G-----------------------------1-4---1-4---1-4---1-4--
    D---------------------------2-----2-----2-----2------
    A------6-----6-----6-----6---------------------------
    E--4-7---4-7---4-7---4-7-----------------------------
    
    G-----------------------------1-4---1-4-----3-3-6-6-3--…
  • KEY: *-palm mute h-hammer on p-pull off ~-let ring >-pickslide
    Guitar 1-Tim
    Guitar 2-Lars
    
    Intro/Chorus (Guitar 1-distortion)
    
    e----------------------------------
    B-1010--101010--10-----------------
    G-9-9---9-9-9---9--9-9---9-9-9---9-
    D-7-7---7-7-7---7--6-6---6-6-6---6-
    A----------------------------------
    E----------------------------------…
  • G:---------------------------------------------------------------------
    D:-----1-----------------------1----------------------1----------------
    A:3--3----3-------3-------3--3----3------3-------3--3----3------3------
    E:------------1-4---4--1-------------1-4---4--1-------------1-4---4--1-
    
    G:---------------------------------------------------
    D:-----------------------3--------------------3------
    A:1------------1-5--1--4---4--------1-5--1--4---4----
    E:----5--4--3----------------1-1-3----------------1-1
    
    G:------------------------------------------------------------------
    D:-------------3--------------------3------------1------------------
    A:---1-5--1--4---4--------1-5--1--4---4-----3--3----3----------3----
    E:3----------------1-1-3----------------1-1------------1-1-1-4---4-1
    
    G:------------------------------------------------------------------
    D:-------1---------------------------1------------------------------
    A:-3-3-3----3-----------3------3-3-3----3----------3-----1----------
    E:--------------1-1-1-4---4-1--------------1-1-1-4---4-1-----5--4---…
  • Intro:
    G:---------------------------------------
    D:------4-2-0----------------------------
    A:------------3-5------------------------
    E:----3----------------------------------
    
    Chorus:
    G:--------------------------------------------------
    D:-------4-7------9---------2-5---4-7----5-5-5-3----
    A:-2-5--5-----7-10----2-5--3-----5---------------5-3
    E:3------------------3-----------------3------------
    
    Verse:
    G:-44444-------------------------------------------------
    D:----------------------555-3-------------77777-5--------
    A:2-------2--------5555-------5-3---4-5-7--------7-555555
    E:---------5-3-2--3----------------5---------------------
    
    End:
    G:---------------------------------------
    D:---------------------------------------
    A:--3-5----------------------------------
    E:------3--------------------------------…
  • e|-----5-4-2-2-2/4-2----5-4-2-2-2/4-2----------------------------------------|
    B|---------------------------------------------------------------------------|
    G|---------------------------------------------------------------------------|
    D|---------------------------------------------------------------------------|
    A|---------------------------------------------------------------------------|
    E|---------------------------------------------------------------------------|
    
    e|-----5-4-2-2-2/4-2----5-4-2-2-2/4-2----------------------------------------|
    B|---------------------------------------------------------------------------|
    G|---------------------------------------------------------------------------|
    D|---------------------------------------------------------------------------|
    A|---------------------------------------------------------------------------|
    E|---------------------------------------------------------------------------|
    do…
  • (Spent fifteen years...)
    |-----------------------------------------------------|
    |-----------------------------------------------------|
    |-----------------------------------------------------|
    |55-5--55-5--55-5--55-5-------------------------------|x2
    |33-3--33-3--33-3--33-3--33-3--33-3--33-3--33-3-------|
    |------------------------11-1--11-1--11-1--11-1-------|…
  • Chorus part 1
    G:--------------------------------------------------
    D:--------------------------------------------------
    A:-8-8-8-8-8-6-6-6-------6/8-8-8-8-8--6-6-6-------
    E:------------------6-6-6---------------------6-6-6-…
  • Verse STRUM SUPER FAST
    |G|------------------------------------|
    |D|------------------------------------|
    |A|-33333333333333333333333333333333---|
    |E|------------------------------------|
    
    
    |G|------------------22222222----------|
    |D|-2222222222222222-------------------|
    |A|------------------------------------|
    |E|------------------------------------|
    
    
    |G|--2-55-77-99-77-55---------55-77----|
    |D|-------------------7-55-33----------|
    |A|------------------------------------|
    |E|------------------------------------|
    
    |G|-2-0-----|
    |D|-----2-0-|
    |A|---------|
    |E|---------|
    
    Chorus…
  • h = hammer-on
    / - bend
    
    Bass Intro
    e|---------------------------------------------------------------------------|
    B|---------------------------------------------------------------------------|
    G|---------------------------------------------------------------------------|
    D|------7-----7--10-9-7---------------7-9-10-9-7-----------------------------|
    A|--7h9---7h9-------------(3x)-then------------------------------------------|
    E|---------------------------------------------------------------------------|
    
    Guitar…
Наверх