Аккорды Red - Shadows

Добавлено: @romashka
Дата добавления: 02 Июля 2017г.
Рейтинг:
0.0
Просмотров: 284
Транспонировать - +
Вступление: A#5 B5 C#5 D5               
4)-------------------------------|-3-4-6-7-3--3-4-6-7-3--3-4-6-7-------
5)-1-2-4-5-1--1-2-4-5-1--1-2-4-5-|-1-2-4-5-1--1-2-4-5-1--1-2-4-5-------
         Часть 1                          Часть 2

Куплет:
Em      D
The sunset
           C
I close my eyes
      G         G/F#         Em  
I pretend everything's alright
            D                     C  
Drowning in anger from all these lies
            G          D        Em 
I can't pretend everything's alright
              D             C
Please don't let me fall forever
         G          G/F#        
Can you tell me it's over now?

Припев:
G         
There's a hate in me
      D
Like some kind of master
Em                      C
I try to save you but I can't find the answer
G               
I'm holding on to you
D
I'll never let go
Em                      C  
I need you with me as I enter the shadows

Проигрыш 1:

Гитара 1
4)-3-4-6-7-3--3-4-6-7-3--3-4-6-7-
5)-1-2-4-5-1--1-2-4-5-1--1-2-4-5-

Гитара 2
2)-7-6---4-3---7-6---4-3-

Куплет:
Em      D
Caught in the darkness
        C
I go blind
      G         G/F#         Em  
Can you help me find my way out?
            D                     C  
Nobody hears me, I suffer the silence
           G          D     Em 
Can you tell me it's over now?

Припев:
G         
There's a hate in me
      D
Like some kind of master
Em                      C
I try to save you but I can't find the answer
G               
I'm holding on to you
D
I'll never let go
Em                      C  
I need you with me as I enter the shadows

Проигрыш 2:
Гитара 1
4)----------------------------|-3--3-3--4-3-3--3-3-3-4-3-3--3--3-3-4-3-3-------3/4--
5)-1--1-1--2-1-1--1-1-1-2-1-1-|-1--1-1--2-1-1--1-1-1-2-1-1--1--1-1-2-1-1--4/6--1/6--
6)----------------------------|-------------------------------------------2/4-------
                               
Гитара 2      
2)|-6----6--7-6-----6----6--9-7-9-------------
3)|---3---------3-----3-----------------------

G                  D
I'm holding on to you
Em                C
I'm holding on to you

Припев:
G         
There's a hate in me
      D
Like some kind of master
Em                      C
I try to save you but I can't find the answer
G               
I'm holding on to you
D
I'll never let go
Em                      C             C D
I need you with me as I enter the shadows

Кода:

Гитара 1
4)-3-4-6-7-3--3-4-6-7-3--3-4-6-7-------
5)-1-2-4-5-1--1-2-4-5-1--1-2-4-5-------

Гитара 2:
1)------------------------------7-6---
2)-6----7-6-----3-4-----------6-------
3)-----------3-------1-4-3------------

Бой: V v ^ ^ v v v^ . Часть 2 играется 4 раза везде. Последние аккорды C и D играются так: C (V v ^ ^ v), D (v v^)
Наверх