Аккорды Redd - Nefes Bile Almadan

Добавлено: @romashka
Дата добавления: 19 Апреля 2019г.
Рейтинг:
0.0
Просмотров: 45
Транспонировать - +
Intro:
e|-5--------7-- --8------7---- 
B|---(5)----5-- ---------5---- 
G|------5------ -----5--------
D|-7----------- --7----------- x2
A|------------- --------------
E|------------- --------------

    Am7           G7      Dm7
e|-7-----5--------3-------1------
B|-------5--------3-------1------
G|----5--------------4----2------
D|-7--------------0--------------
A|-------------------------------
E|-------------------------------
 Kelebek kadar    ömrümüz  var

   Am7   Dm7            E
e|-0-----1----------------------------0-
B|-1-----1----------------------------0-
G|----0--------------------------1h2----
D|---------------------------2----------
A|-0----------------------2-------------
E|---------------------0----------------
  Sevmek lazım hemen   başlayalım

 Am7             G7      Dm7
 Kaybedecek daha neyimiz var?  
 Am7      Dm7                  E
 Aşk için ne gerekiyorsa hepsi bende var...

 Am7        G7
 Nefes bile almadan
 Am7        G7 
 Nefes bile almadan  
 Dm7        G7
 Nefes bile almadan
             Am7
 seviyorum seni

    Am7           G7      Dm7
e|-7-----5--------3-------1------
B|-------5--------3-------1------
G|----5--------------4----2------
D|-7--------------0--------------
A|-------------------------------
E|-------------------------------
 Sarmasiklar gibi sardin kalbimi

   Am7   Dm7            E
e|-0-----1----------------------------0-
B|-1-----1----------------------------0-
G|----0--------------------------1h2----
D|---------------------------2----------
A|-0----------------------2-------------
E|---------------------0----------------
 Degistirdin kanimi koydun zehrini

 Am7             G7     Dm7
 Örümcek gibi ördün zihnimi
 Am7      Dm7                  E
 Düsündükce daha çok isterim seni

 Am7        G7
Nefes bile almadan
Am7        G7 
Nefes bile almadan  
Dm7        G7
Nefes bile almadan

Am7 - Am       G7     C7
Içimde dolasan alkol gibi
Fmaj7    Dm7      E7 
Sana gitgide sarhos oluyorum
Am7 - Am *  G7       C7
Ruhumu   kaybetmis gibi
Fmaj7  Dm7         E7 
Sadece senin için yasiyorum

Am7        G7
Nefes bile almadan
Am7        G7 
Nefes bile almadan  
Dm7        G7
Nefes bile almadan
           Am7
seviyorum seni
comments powered by Disqus
Наверх