Аккорды «Reef»

Reef
Четверо музыкантов, основавших эту команду, выросли в окрестностях Гластонбери. Гэри Стрингер и Джек Бессант были соседями и вместе начинали музицировать в одной фанк-хардкор-кавер-банде. К 1992 году они вместе с Кенвином Хаусом и Домиником Гринсмитом перебрались в Лондон, где играли всякие вещи Джими Хендрикса, "Massive attack", "Jane's addiction". Постепенно "REEF" перешли на современную основу и стали сами сочинять песни. Впервые мир узнал об этой четверке, когда ребят взял с собой в турне Пол… Читать полностью... Четверо музыкантов, основавших эту команду, выросли в окрестностях Гластонбери. Гэри Стрингер и Джек Бессант были соседями и вместе начинали музицировать в одной фанк-хардкор-кавер-банде. К 1992 году они вместе с Кенвином Хаусом и Домиником Гринсмитом перебрались в Лондон, где играли всякие вещи Джими Хендрикса, "Massive attack", "Jane's addiction". Постепенно "REEF" перешли на современную основу и стали сами сочинять песни. Впервые мир узнал об этой четверке, когда ребят взял с собой в турне Пол Веллер. Между тем демо "The Purple Tape" попало на "S2", филиал "Sony". Пленка понравилась лейблу и к концу 1994 года с "S2" был заключен контракт. С продюсером Клайвом Мартином парни заперлись в студии и к лету 1995-го подготовили дебютный лонгплей, "Replenish". Выход альбома предварялся двумя синглами, "Good feeling" и "Naked", занявших соответственно 24-е и 11-е места в британских чартах. А сам альбом, чем-то напоминающий творения "Red hot chili peppers", угодил прямо в горячую десятку, обосновавшись на 9-й позиции. Вскоре состоялось и первое глобальное турне, в течение которого "REEF" побывали в Америке, Японии и Австралии. Закончились гастроли в Лондоне, где группа выступила на разогреве у самих "Rolling stones". Затем музыканты скооперировались с продюсером Джорджем Дракулиасом и отправились в студию "Abbey road" записывать вторую пластинку. Между делом "REEF" приняли участие (и выиграли) в конкурсе "Music Industry Soccer Six", оставив позади "Oasis". Фанковый альбом "Glow", предваренный синглами "Come Back Brighter" (№ 8) и "Place Your Hands" (№ 6) взлетел на верхнюю строчку национальных чартов, избавив Англию от тирании "Spice girls". Особой популярностью на этом диске пользовалась баллада "Consideration". Гастроли, продолжившиеся больше года, чуть было не поставили музыкантов на грань нервного истощения, но все обошлось, и дело закончилось выступлением перед семитысячной толпой восторженных поклонников. В начале 1998-го команда сделала передышку, после чего все с тем же Дракулиасом отправилась записывать следующий альбом. По окончании сессий "REEF" полностью распродали британское турне, а по выходу "Rides" отправились колесить по всему миру. "Rides" с восторгом был воспринят критиками, и, хотя слушатели явно недооценили этот альбом, композиция "I've Got Something To Say" с него все-таки попала в лучшую двадцатку. В 2000 году группа решила сменить продюсера и к следующим сессиям привлекла англичанина Эла Клэя ("Pixies", "Stereophonics", "Boo Radleys"), уже, кстати, помогавшего в работе над тремя треками из "Glow". Выпустив энергичный альбом "Gateway" команда на довольно длительное время отошла от студийных экзерсисов. Только в 2003 году увидел свет очередной лонгплей, "Together", содержавший ряд синглов из Топ 30 и четыре новых композиции. Скрыть...
Популярные аккорды Reef:
алфавиту | просмотрам | случайно
  • INTRO     C                F                                                 C
    E------------------------------------------------------------------------------------------------|
    A-----------------------------------3...........--------------3--------------3-------------------|…
  • h = hammer on
    x = muting strings with left hand
    D = strumming down   (Down)
    U = strumming up     (Up)
    pm = palm mute
    LR = let ring
                           x8     riff 1
    e---------------------------------------------------------------------------
    B----------7------x--x--x------7h8----7--8----------------------------------
    G----------7------x--x--x------7------7--7----------------------------------
    D----------7------x--x--x------7h9----7--9----------------------------------
    A---------------------------------------------------------------------------
    D---0-----------------------------------------------------------------------…
  • Main Riff:-
    
    E|----------------------------------|
    B|----------------------------------|
    G|--------5-------------------------|
    D|---3/7-----7/5h3------------------|
    A|-------------------5h3------3-5---|
    D|------------------------0---------|
    
    -…
  • Chords Used
    
    D - 000232
    Dmaj - 000222
    E - 022100
    A - 002220
    Dsus - 000454
    G - 320023
    
    
    Little Riff repeated all the way through
    
    E-------------0-----|
    B-3p2---------------|
    G------2-2b3--------|
    Intro
    
    D	Dmaj	E	A
    
    Verse
    
    D	Dmaj	E	A
    
    Break
    
    D
    And…
  • Riff 1
    G -------------------
    D -------------------
    A --------------3-5--
    E 5--5--5--5-5-------
    
    This is played over the verses and for the intro...
    
    Riff 2
    G ---------------------------
    D 5--5-4--4------------------
    A ----------7--7-5--5--3-5---
    E…
  • Verse
    G:-------------------------------------------------¦
    A:-------------------------------------------------¦
    D:-------------5-----------------------------------¦
    E:--5------------------------------------------5---¦
    
    G:-------------------------------------------------¦
    A:-------------------------------------------------¦
    D:------------5------------------------------------¦
    E:--5-----------------------------------------5----¦
    
    
    Chorus…
  • 4 beats in a bar.        Order =
       Intro, verse,chorus,verse,chorus,bridge,verse,chorus,bridge,end.
         All nice and straitforward.
       Before I forget : DROP D TUNING!!: DADGBE
    
    ------------|------------|------------|-------------||------------------------|
    ------------|------------|------------|-------------||------------------------|
    ------------|------------|------------|-------------||------------------------|
    -4--4--4--4-|-5--5--5--5-|------------|-------------||------------------------|
    -5--5--5--5-|-3--3--3--3-|-4--4--4--4-|-5--5--5--5--||------------------------|
    ------------|------------|-5--5--5--5-|-5--5--5--5--||------------------------|…
  • THIS SONG IS PRETTY SIMPLE ALTHOUGH IF YOUR ACCOUSTIC
    GUITAR HAS A STIFF ACTION THEN IT CAN BE DIFFICULT TO
    PLAY THROUGH. ANYWAY, THIS THE INTRO AND VERSE
    
    
    E-12-12-12-12-8--8--8--8--8--5-5-5-5-5----------------------|
    A-14-14-14-14-10-10-10-10-10-7-7-7-7-7----------------------|
    D-14-14-14-14-10-10-10-10-10-7-7-7-7-7----------------------|
    G-13-13-13-13-9--9--9--9--9--6-6-6-6-6----------------------|
    B-12-12-12-12-8--8--8--8--8--5-5-5-5-5----------------------|
    E-12-12-12-12-8--8--8--8--8--5-5-5-5-5----------------------|
    
    i'VE…
  • Chords Used
    
    G - 355433
    A - 577655
    A5 - 577xxx
    B5 - 799xxx
    D - 557775
    G5 - x355xx
    D5 - x577xx
    
    Riff 1
    
    G---5--7---|
    D-7------7-|
    
    Riff 2
    
    D--5s7--0--5/7--0-
    
    Riff 3
    
    G-5-5h7p5--5-5--5h7p5--
    
    Intro
    
    Riff 1  then Riff 2+3
    
    Verse
    
    Riff…
  • Chords Used
    
    A - 002220
    D - 000232
    G - 320033
    F - 133211
    C - 032010
    
    Intro - A  C  D
    A           C			D           A
    Time, you walk the road and then leave it behind
    C	      D                A
    Nothings ever clearer in your…
  • Intro : Eb	Bb	F	Bb x8
    
    
    Dm          Eb 
    Oh on the floor can you feel it
    F
    yeah definitely
    Dm            Eb 
    Oh on the floor do you mean it
    F
    I've bin here movin all night
    
    Dm           Eb
    Oh on the floor do you mean it
    F
    Does…
  • Intro : D	F	G x4
    
    D		 F G     D		     F	G
    Gonna loosen it up,     Gonna take a step back
    D		    F  G			D		F	G
    Gonna straighten it out,   because I’m solid with myself
    D		   F  G     D			   F	G
    We don’t belong here,   there’s…
  • Use Drop D Tuning
    
    Chords Used
    
    Dsus8 - 004032
    G - 55500x
    Bb - 88800x
    
    Intro
    
    Dsus8
    
    Verse
    
    Dsus8 	G
    
    Little Riff used in chrous
    
    G-5/7/97--
    
    Then a killer riff comes in
    
    D------0--------0---------|
    A-4/5-------4/5----5------|
    D---------0-----------0---|
    
    This…
  • Chords Used
    
    C - 8(10)(10)988
    Bb - 688766
    D - 557775
    B - 799877
    A - 577655
    G - 355433
    
    Intro
    
    C 				Bb
    I can getaway, I can getaway
    Bb				C
    I can see the world, I can be happy
    C					     Bb
    Your could find yourself in a…
Наверх