Аккорды Regata - Andrea

Добавлено: @romashka
Дата добавления: 04 Января 2024г.
Рейтинг:
0.0
Просмотров: 92
[Intro]

E|------------------|-------------------|-
B|--3-3-6-5--1-1-5--|--3-3-6-5----------|-
G|--3-3-5-5--3-2-5--|--3-3-5-5----------|-
D|--3-3-7-5--3-3-5--|--3-3-7-5----------|-
A|------------------|-------------1-0---|-
E|------------------|----------111-1-1--|-

E|------------------|-------------------|-
B|--3-3-6-5--1-1-5--|--3-3-6-5--1-1-5---|-
G|--3-3-5-5--3-2-5--|--3-3-5-5--3-2-5---|-
D|--3-3-7-5--3-3-5--|--3-3-7-5--3-3-5---|-
A|------------------|-------------------|-
E|------------------|-------------------|-

[Verse 1]

Gm                 F         C           Gm  Gm Gm G C G F C
Kunem ti se Bogom, neću više s tobom, Andrea
Gm                 F         C           Gm  Gm Gm G C G F C
Loša su vremena, ljubavi tu nema, Andrea
Gm                 F         C           Gm  Gm Gm G C G F C
Pusti sada tugu, što ja volim drugu, Andrea
Gm                 F         C           Gm  A# A# F A# A# F
Možes da preboliš, nemoj da me moliš, Andrea

[Chorus]

   C       D#   F F C
Andrea, Andrea

E|------------------|-------------------|-
B|--3-3-6-5--1-1-5--|--3-3-6-5--1-1-5---|-
G|--3-3-5-5--3-2-5--|--3-3-5-5--3-2-5---|-
D|--3-3-7-5--3-3-5--|--3-3-7-5--3-3-5---|-
A|------------------|-------------------|-
E|------------------|-------------------|-

[Verse 2]

Gm                 F         C           Gm  Gm Gm G C G F C
Lijepa si Andrea, neće bit' problema, Andrea
Gm                 F         C           Gm  A# A# F A# A# F
Doće ne'ko drugi noću da te ljubi, Andrea

[Chorus]
   C       D#    A# A# F A# A# F
Andrea, Andrea,
   C               D#    A# A# F A# A# F
Andrea, oprosti, Andrea...

F     B        F   C  F F F B F
Znam, voliš me još
 B        F   C F F F B F
Voliš me još
F      B        F   C F F F B F
Znam, voliš me još
      B        F   C F F F B F
Znam, voliš me još
      B        F   C F F F F B F
Znam, voliš me još
 B        F   C F Faug
Voliš me još

[Verse 3]

Gm                 F         C           Gm  Gm Gm G C G F C
Kunem ti se Bogom, neću više s tobom, Andrea
Gm                 F         C           Gm  Gm Gm G C G F C
Loša su vremena, ljubavi tu nema, Andrea
Gm                 F         C           Gm  Gm Gm G C G F C
Pusti sada tugu, što ja volim drugu, Andrea
Gm                 F         C           Gm  A# A# F A# A# F
Možes da preboliš, nemoj da me moliš, Andrea

[Chorus]
   C       D#    A# A# F A# A# F
Andrea, Andrea,
   C               D#    A# A# F A# A# F
Andrea, oprosti, Andrea...

F     B        F   C  F F F B F
Znam, voliš me još
 B        F   C F F F B F
Voliš me još
F      B        F   C F F F B F
Znam, voliš me još
      B        F   C F F F B F
Znam, voliš me još
      B        F   C F F F F B F
Znam, voliš me još
 B        F   C F
Voliš me još		
Но если и музыка нас оставит, что будет тогда с нашим миром? (Гоголь)
Мы стремимся к созданию контента, соответствующего всем нормам законодательства и уважающего интеллектуальную собственность. Мы также придаем большое значение тому, чтобы не задеть никого и не оскорбить чьи-либо чувства. Если у вас есть вопросы или претензии по размещенному материалу, пожалуйста, сообщите нам об этом на указанный адрес электронной почты: [email protected].
Шрифт
-
0
+
Прокрутка
-
0
+
Стоп
Наверх