Аккорды Rels B - Una Cumbia Triste

Добавлено: @romashka
Дата добавления: 08 Февраля 2024г.
Рейтинг:
0.0
Просмотров: 72
Acordes:

Em: x-2-2-0-0-0
Bm: x-2-4-4-3-2
B7: 0-2-1-2-0-2
Em7: x-2-2-0-0-3

[Intro]

Em                     Bm                 B7                  Em7

e|------3-------3----x------2-------2----x------2-------2----x------3-------3----x--|
B|--------0-------0--x--------3-------3--x--------2-------2--x--------0-------0--x--|
G|----0-------0------x----4-------4------x----2-------2------x----0-------0------x--|
D|-------------------x-------------------x-------------------x-------------------x--|
A|--2-------2--------x--2-------2--------x--2-------2--------x--2-------2--------x--|
E|-------------------x-------------------x-------------------x-------------------x--|

(se repite de base en toda la canción)

[Pre-Estribillo]

Em                            Bm
Dime por qué todo lo haces así
B7                        Em7
Me enamoré un poquito de ti
Em                             Bm
Otra canción, esta te la escribí
B7                                                   Em7
Con un poco de pena y un poco de rabia, porque eres así

[Estribillo]

Em               Bm
Ay, amor; ay, amor
B7                Em7
Ay, amor; ay, amor
Em                Bm
Ay, amor; ay, amor
B7                                                         Em7
Dime qué te ha pasado, que tanto has cambiado, tú no eras así

[Verso 1]

Em
Llegó la noche, estaba caliente
Bm
Yo te llamaba pa' volver a verte
B7
No contestabas, se me hizo tarde
Em7
Pensé que llamarías al siguiente
Em
Pero al siguiente nunca llamaste
Bm
Ya te notaba tan diferente
B7
¿Será que ya no me quiere' ver?
Em7
Se acabó el amor, se acabó mi suerte, yeah-yeah

[Refrán]

Em                        Bm
Tú me prometiste, tú me juraste, tú me dijiste
B7
Que si te amaba, tú ibas a amarme
Em7
Pero te fuiste (Pero te fuiste)
Em
Y ahora solo camino solo
Bm
Te echo de meno', ¿pa' qué mentirte?
B7
Pero tampoco voy a esperarte
Em7
Cierra la puerta después de irte

[Pre-Estribillo]

Em                           Bm
Dime por qué todo lo haces así
B7                        Em7
Me enamoré un poquito de ti
Em                            Bm
Otra canción, esta te la escribí
B7                                                   Em7  N.C.
Con un poco de pena y un poco de rabia, porque eres así

[Estribillo]

Em               Bm
Ay, amor; ay, amor
B7                Em7
Ay, amor; ay, amor
Em               Bm
Ay, amor; ay, amor
B7                                                         Em7
Dime qué te ha pasado, que tanto has cambiado, tú no eras así

[Verso 2]

Em
Una gitana con tanto arte
Bm
Tu corazón lleno de flamenco
B7
Y yo sin guitarra pa' cantarte
Em7
Pero si vienes, te hago un concierto
Em
Otra canción quiero dedicarte
Bm
Para contarte cómo me siento
B7
Sé que lo nuestro es punto y aparte
Em7
Y no sé olvidarte, pero lo intento, yeah-yeah

[Refrán]

Em                  Bm
Tú me prometiste, tú me juraste, tú me dijiste
B7
Que si te amaba, tú ibas a amarme
Em7
Pero te fuiste (Pero te fuiste)
Em
Y ahora solo, camino solo
Bm
Te echo de meno', ¿pa' qué mentirte?
B7
Pero tampoco voy a esperarte
Em7                            N.C.
Cierra la puerta después de irte

[Estribillo]

Em               Bm
Ay, amor; ay, amor
B7              Em7
Ay, amor; ay, amor
Em               Bm
Ay, amor; ay, amor
B7                                                        Em7
Dime qué te ha pasado, que tanto has cambiado, tú no eras así

[Outro]

Em                     Bm                 B7                  Em7

e|------3-------3----x------2-------2----x------2-------2----x------3-------3----x--|
B|--------0-------0--x--------3-------3--x--------2-------2--x--------0-------0--x--|
G|----0-------0------x----4-------4------x----2-------2------x----0-------0------x--|
D|-------------------x-------------------x-------------------x-------------------x--|
A|--2-------2--------x--2-------2--------x--2-------2--------x--2-------2--------x--|
E|-------------------x-------------------x-------------------x-------------------x--| 
Музыка дает душу вселенной, крылья разуму, полет воображению и жизнь всему (Платон)
Мы стремимся к созданию контента, соответствующего всем нормам законодательства и уважающего интеллектуальную собственность. Мы также придаем большое значение тому, чтобы не задеть никого и не оскорбить чьи-либо чувства. Если у вас есть вопросы или претензии по размещенному материалу, пожалуйста, сообщите нам об этом.
Шрифт
-
0
+
Прокрутка
-
0
+
Стоп
Наверх