Аккорды «Remy Zero»

Remy Zero
В 1989 году, в Бирмингэме, штат Алабама, появилась новая группа Remy Zero. Ее основали: Кинджун Тэйт (вокал, гитара), Шелби Тэйт (вокал, гитара, клавиши), Грегори Слэй (ударные) и Джефри Кейн (гитара). Школьные друзья выбрали для себя направление альтернативный рок. В то время их романтичная, в чем-то капризная музыка отличалась от царившей повсюду атмосферы агрессивной юности. Впервые группа была замечена еще до записи их полноформатного альбома: участники Radiohead прослушали их пробные записи… Читать полностью... В 1989 году, в Бирмингэме, штат Алабама, появилась новая группа Remy Zero. Ее основали: Кинджун Тэйт (вокал, гитара), Шелби Тэйт (вокал, гитара, клавиши), Грегори Слэй (ударные) и Джефри Кейн (гитара). Школьные друзья выбрали для себя направление альтернативный рок. В то время их романтичная, в чем-то капризная музыка отличалась от царившей повсюду атмосферы агрессивной юности. Впервые группа была замечена еще до записи их полноформатного альбома: участники Radiohead прослушали их пробные записи и пригласили группу участвовать во всеамериканском туре The Bends. Но главным зрителем стала звукозаписывающая компания Geffen Records. После этого они рванули из родного Бирмингэма в Лос-Анжелес для записи их первого альбома. Но по разным причинам, главными из которых, наверное, были неудача и депрессия после переезда, их первый одноименный альбом получил плохие отзывы. Зато следующий их альбом, созданный уже во время проживания в Голливуде «Villa Elaine», был хорошо принят критиками, радиостанция «Next Big Thing» называла их преемниками Radiohead и U2. Далее вышел, возможно, лучший их альбом «The Golden Hum», который также был принят хорошо. А 30-секундный клип из альбома на песню «Save Me» стал главной темой к сериалу «Тайны Смолвиля». Отмечу также, что это не единственная песня ставшая саундтреком: « Fair» из альбома «Villa Elaine» была использована в фильме «Страна садов», также из этого альбома можно услышать песню « Prophecy» в «Последнем поцелуе». Композиция «Perfect memory», The Golden Hum звучит в финале «Невидимого». По-видимому, отдав все силы альбому «The Golden Hum» группа распалась, а ее участники разбежались по другим коллективам. Шелби и Кинджун Тэйт создали группу «Spartan Fidelity», Джефри Кейн присоединился к «Isidore», а Грегори Слэй ушел в «Sleepwell». В 2006 году появилась надежда, что группа опять объединится, об этом писалось и на их странице в MySpace. Тем не менее, жизнь взяла свое, и летом 2007 года на их странице появилось следующее: «История такова: мы создали группу в 1989. Мы распались в 2003. Мы долго думали, что сможем начать создавать музыку снова, но сейчас… кто знает. Мы сохраним страницу здесь, как бы то ни было, мы делаем, вместе или отдельно – все, что мы можем». Скрыть...
Популярные аккорды Remy Zero:
алфавиту | просмотрам | случайно
  • Tuning: Standard (EBGDAE)
    
    Intro/Verse:
    
    E-|---------|-----------------------|
    B-|---------|-------6h7p6-----------| X 2
    G-|---6s8---|---6h8-------8p6-6s8---|
    D-|---------|-----------------------|
    A-|---0-----|---0-----0---0---0-----|
    E-|---------|-----------------------|
    
    Verse:
    
    E-|---------|-------------------------|-----------------------|-----------|
    B-|---------|-------6h7p6---------0---|-------6h7p6-----------|---7-6-----|
    G-|---6s8---|---6h8-------8p6-6s8-----|---6h8-------8p6-6s8---|-------8---|
    D-|---------|-------------------------|-----------------------|-----------|
    A-|---0-----|---0-----0---0---0-------|---0-----0---0---0-----|---0-0-0---|
    E-|---------|-------------------------|-----------------------|-----------|
    
    I'm…
  • Special Sequence: **SS**
    
    E -- 0--0--0
    B -- 0--0--0
    G -- 9--9--9
    D -- 9--9--9
    A -- 7--6--6
    E -- 0--0--5
    
    Intro: C#m A E B 2x
    
    Verse1:
    C#m        A            E
    I need to hear you say goodbye.…
  • Intro,D,G,D,G,D,A,G
    D                   G               D
    Remember how they always seemed to know
                  D
    We had the forest in our eyes
              G                 D     G
    But the earth was in our clothes…
  • Tuning: Regular
    
    **Note: notes in braces {} are triplets; 3 dashes between notes means rest for a
    beat (between the double 14's)
    
    E||--------------------------------------------------------|
    A||--12-12-15-12-------------------------------------------|
    D||--------------{13-12-10}-10-h12-13/14---14-13b-10-------|
    G||--------------------------------------------------------|
    B||--------------------------------------------------------|
    E||--------------------------------------------------------|
    
    E||--------------------------------------------------------|
    A||--12-12-15-12-------------------------------------------|
    D||--------------{13-12-10}-10-h12-13/14---14-17-14-17-19--|
    G||--------------------------------------------------------|
    B||--------------------------------------------------------|
    E||--------------------------------------------------------|
    
    E||--------------------------------------------------------|
    A||--12-12-15-12-------------------------------------------|
    D||--------------{13-12-10}-10-h12-13/14---14-13b-10-------|
    G||--------------------------------------------------------|
    B||--------------------------------------------------------|
    E||--------------------------------------------------------|
    
    E||--------------------------------------------------------|
    A||--12-12-15-12-------------------------------------------|
    D||--------------{13-12-10}-10-h12-{13-12-10}-10-h12-{13-12|
    G||--------------------------------------------------------|
    B||--------------------------------------------------------|
    E||--------------------------------------------------------|
    
    E||-------------X-X-X-X-X-X-X---X-X-X-X-X------------------|
    A||-------------X-X-X-X-X-X-X---X-X-X-X-X------------------|
    D||--10}-10-h12-X-X-X-X-X-X-X---X-X-X-X-X------------------|
    G||-------------X-X-X-X-X-X-X---X-X-X-X-X------------------|
    B||-------------X-X-12X-12X-12--X-X-15X-15-----------------|
    E||-------------X-X-X-X-X-X-X---X-X-X-X-X------------------|…
  • Intro: Dm Am G / Dm Am C G
    
    Dm           Am                 
    As the earth swung
    C           G
    This golden hum
    Dm             Am    G
    Seemed to wash over me
    Am
    As the bells ringed 
    C           G
    I heard you sing
    Am…
  • INTRO
    D Bm D Bm
    
    VERSE 1
    
    D           Bm
    Hey, are you lonely?
    C                     G      
    Has summer gone so slowly?
    D            Bm
    We found the ground
                         G
    And that damage was done
    A…
  • Bb
       Here they come, here they come
    
    Eb
       Here they come and they might as well
    
    Bb				Eb
       Too many birds in my    confusion now
    
    Bb			    Eb                   Cm              D     Gm
       Now they'll circle…
  • D C G
    D C G
    D C G
    D C G
    Em D# G A
    D C G
    We took you down there 
    To relapse in the sand,
    And we walked out in the open 
    Resolved to being seen. 
    D C G
    It was summer in the kitchen 
    So we stretched out in the grass.…
  • A         G                    A       G
    I feel my wings have broken in your hands
    A         G                    A G
    I feel the words unspoken inside
    G
    And, they pull you under
    A         G                    A…
Наверх