Аккорды «Reveille»

Reveille
В 1999 году группа Reveille записывает на Elektra records свой первый лонгплей "Laced", который продюсировал Steve Thompson (KoRn, Metallica). В 2002 году выходит "Bleed the Sky", который сильно отличается от предыдущего релиза. Записав несколько демо-записей в 2003 году, группа распалась прямо перед записью нового альбома. Reveille были, наверное, самой главной надеждой андеграунд-сцены. Мощь, энергетика, драйв, скретчевые запилы, грамотный речетатив - вот что выделяло их из других рэпкор-банд.… Читать полностью... В 1999 году группа Reveille записывает на Elektra records свой первый лонгплей "Laced", который продюсировал Steve Thompson (KoRn, Metallica). В 2002 году выходит "Bleed the Sky", который сильно отличается от предыдущего релиза. Записав несколько демо-записей в 2003 году, группа распалась прямо перед записью нового альбома. Reveille были, наверное, самой главной надеждой андеграунд-сцены. Мощь, энергетика, драйв, скретчевые запилы, грамотный речетатив - вот что выделяло их из других рэпкор-банд. Кстати, на "Laced" засветился сам B-Real из Cypress Hill в песне "Split", а на "Bleed the Sky" в песне "Plastic" Stephen Richards из Taproot. В 2005 году бывшие участники Reveille Drew Simollardes и Greg Sullivan собирают новую группу "Genuflect", которая в принципе удержалась в рамках стиля Reveille, но теперь общий саунд стал ещё жёстче и тяжелее. В 2005 году они записывают первый демо-альбом из 7 песен! В 2007 году выходит первый полноформатный альбом группы Genuflect - "End Of The World" и почти полностью состоит из перезаписанных треков с демо альбома "Rough Mix" (2005) В октябре 2008 года группа воссоединилась на пару концертов. Скрыть...
Популярные аккорды Reveille:
алфавиту | просмотрам | случайно
  • Tuning: Dropped D 
    
    
    ----------------------
    ----------------------
    ----------------------
    xx-x-6-xx-x-6-x-------
    xx-x-6-xx-x-6-x-------
    xx-x-6-xx x-6-x-------
    repeat a few times
    
    ----------------------
    ----------------------
    ----------------------
    00-0-6-00-0-4h6-------
    00-0-6-00-0-4h6-------
    00-0-6-00-0-4h6-------
    ^
    intro…
  • Tuned to Drop D & dropped 1/2 a step down [C# G# C# F# A# D#]
    
    p = palm mute
    / = slide up
     = slide down
    h = hammer on
    
    
    INTRO (distortion)
    D#--------------------------------------------------------------|
    A#--------------------------------------------------------------|
    F#--7-----------------------------------------------------------|
    C#--0----(hold…
  • tune down 1/2 step and drop the low e to a d flat
    
       INTRO
    
       e|------10-------------------|
       B|----------10--9------------|
       G|-----------------10--9--7--|
       D|-0-------------------------|
       A|-0-------------------------|…
  • tuning: normal(GDAE)
    
    INTRO AND VERSE
    G|------------------
    D|------------------
    A|------------------
    E|-2-0-2------2-0-2-
    
    CHORUS
    G|---------------------
    D|---------------------
    A|---------------------
    E|-0-0-32-0--7-7-5-7-7-
    
    INTERLUDE
    G|-------------------
    D|-------------------
    A|-------------------
    E|-7-7-5-7-5-3-2-0-0-…
  • No bass on the intro.
    
    Intro part 2:
    G-------------------------------------------------------------
    D-------------------------------------------------------------
    A-------------------------------------------------------------
    E---0-2222-00-3333-00-2222-00-33/6----------------------------
    
    Verse:
    G-------------------------------------------------------------
    D-------------------------------------------------------------
    A-------------------------------------------------------------
    E--6--2--3-22-5-3--6--2--3-22-5-------------------------------
    
    Chorus:
    G-------------------------------------------------------------
    D-------------------------------------------------------------
    A---6-5-6-5--6-5-6-5-0--3-2-3-2--6-5-6-5--6-5-6-5-0--3--------
    E-------------------------------------------------------------
    
    Bass…
  • Tuning:Drop D, ebGDAE
    
    Intro   W/dist.                                       x/3
    e----------------------------:--------------------------
    B----------------------------:--------------------------
    G----------------------------:--------------------------
    D-7-7-7---3-3-3---2-2---0-2-3:-6-6-6---2-2-2---0-1-2----
    A----------------------------:--------------------------
    D----------------------------:--------------------------
    
    Kick…
  • Tuning: Drop D 
    
    Intro: (w/Tremolo)
    e-------------------------------------------------------
    B-------------------------------------------------------
    G--0-3-5-3-5---3-5-3-5-3-0-3-5-3-5---5-3----------------
    D------------4---------------------4--------------------
    a-------------------------------------------------------
    D-------------------------------------------------------…
  • Intro:
    G-------------------------------------------------------------
    D-------------------------------------------------------------
    A-------------------------------------------------------------
    E---0-65-0-32--0-23-0-56--0-65-0-32--0-23-0-56--------
    
    Bass…
Наверх