Аккорды «Riddlin Kids»

Популярные аккорды Riddlin Kids:
алфавиту | просмотрам | случайно
  • Standard Tuning
    
    Intro: 
    G--------------------------------------------------- 
    D---------------------------------------------------
    A--4-4-4-4-4-4-4-4-4-4-4-4-4-4-4-4------------------ x2
    E----------------------------------2-2-2-2-4-4-4-4--
    
    Verse:
    G-------------------------------------
    D-------------------------------------…
  • Tuning:EADGBe
    
    Main: Riff
    e|---------------------------|
    B|---------------------------|
    G|-5-5-5-5-------------------|
    D|-5-5-5-5--7-7-7-7--5-5-5-5-|
    A|-3-3-3-3--7-7-7-7--5-5-5-5-|
    E|----------5-5-5-5--3-3-3-3-|
    
    Intro/Fill
    e|--------------------|
    B|--------------------|
    G|-5/12-10-9-5-7-10-9-|
    D|-x/-x-x--x-x-x-x--x-|
    A|-3/10-8--7-3-5-8--7-|
    E|--------------------|…
  • Standard(Right)Tunning: EADGBe
    Play with Distortion and maybe some Chorus for the second guitar.
    
    Both Guitars: Intro
    e|------------------------------------|------------------------------------|
    B|------------------------------------|------------------------------------|
    G|-7-7-7-7----------------------------|-7-7-7-7----------------------------|
    D|-7-7-7-7--7-7-7-7--2-2-2-2--5-5-5-5-|-x-x-x-x--7-7-7-7--2-2-2-2--5-5-5-5-|
    A|-5-5-5-5--7-7-7-7--2-2-2-2--5-5-5-5-|-5-5-5-5--x-x-x-x--x-x-x-x--x-x-x-x-|
    E|----------5-5-5-5--0-0-0-0--3-3-3-3-|----------5-5-5-5--0-0-0-0--3-3-3-3-|
    
    Guitar…
  • Tuning: EADGBe
    
    Intro/Verse
    e|------------------| e|----------------------|
    B|------------------| B|----------------------|
    G|-5-5-x-x-x--------| G|-5-5-x-x-x-x----------|
    D|-5-5-x-x-x--2-2-3-| D|-5-5-x-x-x-x--2-2-3-5-|
    A|-3-3-x-x-x--2-2-3-|…
  • Verse one   X2
    G-------------------------------------------------------------------------------]
    D-------------------------------------------------------------------------------]
    A---000000000000000--------------------------------------------55555555555555---]
    E------------------------000000000000000---333333333333333----------------------]
    
    
    
    Verse…
  • Tuning: EADG
    
    Intro
    G|------------------|
    D|------------------|
    A|-5-5-5-5----------|
    E|----------3-3-3-3-|
    
    Verse
    G|--------------------------------------------------------------------|
    D|--------------------------------------------------------------------|
    A|-5-5-5-5-5-5-5-5-------------------2-2-2-2-2-2-2-2------------------|
    E|------------------3-3-3-3-3-3-3-3-------------------3-3-3-3-3-3-3-3-|
    
    Pre-Chorus
    G|------------------------------------|
    D|------------------------------------|
    A|-5-5-5-5--2-2-2-2-----------5-5-5-5-|
    E|-------------------3-3-3-3----------|
    
    Chorus
    G|---------------------------------------------|
    D|---------------------------------------------|
    A|-5-5-5-5-----------------------------7-7-7-7-|
    E|----------3-3-3-3--5-5-5-5--3-3-3-3----------|
    
    Outro
    G|-----|
    D|-----|
    A|-5-5-|
    E|-----|
    
    |…
  • Part one
    G--------------------------------------------------------------------------------|
    D--------------------------------------------------------------------------------|   X3
    A------------------------2-2-2-2-2-2-2-2---0-0-0-0------------0-0-0-0---2-2-2-2--|
    E---0-0-0-0-0-0-0-0-----------------------------------4-4-4----------------------|
    
    
    Part…
  • Chords:
    
    G5   (355xxx)  F5  (133xxx)
    C5   (x355xx)  E5  (022xxx)
    A5   (577xxx)
    Bb5  (688xxx)
    D5   (x577xx)
    
    
    Intro:
    
    E|----------------------------------------------|
    B|----------------------------------------------|
    G|----------5---------------5-------------------|
    D|-5--------5-------5-------5-------------------|
    A|-5--------3-------5-------3-------------------|
    E|-3----------------3-----------Pick…
  • G--–11—-15-—16-—14-—15—-----]
    D---------------------------]           X4
    A---------------------------]
    E---------------------------]
    
    
    G-----------------------]
    D-----------------------]        X2
    A-----------------------]
    E—--2---2----2----2-----]
    
    
    G--------------------------------]
    D--------------------------------]
    A--------------------------------]
    E--—2—2—2—2—2—2—2—2—2—2—2—2------]
    
    
    G---------------------]
    D---------------------]
    A---------------------]
    E--—2-2-2-2-2-2-2-2---]
    
    
    G-----------------------------------------------------------------------
    D-----------------------------------------------------------------------…
  • Part one
    G----------------------------------------------------
    D----------------------------------------------------              X2
    A------------------------0-0-0---2-2-2-2-2-2---------
    E---0-0-0-----4-4-4----------------------------------
    
    
    Part…
  • Part One
    G-----------------------------------------------------
    D-----------------------------------------------------  X4
    A----------4-4-4-4-4-4----0-0-0-0-0-0-0-0-0-0-0-0-----
    E--0-0-0----------------------------------------------
    
    Party…
  • Verse one  X2
    G------------------------------------------]
    D------------------------------------------]
    A---1-1111----------------------6-6666-----]
    E-------------1-1111---3-3333--------------]
    
    Verse two  X6
    G----------------------------------------------]
    D----------------------------------------------]
    A---111111------------------------66-55-33-1---]
    E--------------111111---333333-----------------]
    
    Verse…
  • Part one
    G------------------------------------------------
    D------------------------------------------------     X2
    A---------------0-0---2----------------0-0---2--
    E---0-0---4-----------------0-0---4-------------
    
    
    Part…
Наверх