Аккорды Ride - Weather Diaries

Добавлено: @romashka
Дата добавления: 30 Марта 2024г.
Рейтинг:
0.0
Просмотров: 43
Транспонировать - +
{Intro] x2

Gtr 1
e|---------------------------------|---------------------------------|
B|-0-0-0-0-0-0-0-0-0-0-0-0-0-0-0-0-|-0-0-0-0-0-0-0-0-0-0-0-0-0-0-0-0-|
G|-7-7-7-7-7-7-7-7-7-7-7-7-7-6-6-6-|-4-4-4-4-4-4-4-4-4-4-4-4-4-4-2-2-|
D|---------------------------------|---------------------------------|
A|---------------------------------|---------------------------------|
E|---------------------------------|---------------------------------|

Synth
e|---------------------------------|---------------------------------|----|
B|---------------------------------|---------------------------------|----|
G|---------------------------------|-----------------14--12--11------|----|
D|---------------------------------|-----------------------------12--|----|
A|---------------------------------|---------------------------------|-14-|
E|---------------------------------|---------------------------------|----|

[Verse 1]
        Bm                                      A       G                               A
  So it rained that day,                    the day  I  gave it all away
        Bm                                      A       G                               A
  And I never thought it would,                when the morning looked so good
        Bm                                      A       G                               A
     It seems you never know,                   which direction life will blow
        Bm                                      A       G                               A
    You never know what someone's thinking    until    they're just about to go

[Chorus]
        A
I'm unsettled by the weather, it's getting stranger
        G
Should it be this good right now, are we in some kind of danger
        A
Is this atmosphere just me, or is sky too blue
        G
It's too perfect somethings got to give, I'm going under where are you

[Synth]
e|---------------------------------|----|
B|---------------------------------|----|
G|-----------------14--12--11------|----|
D|-----------------------------12--|----|
A|---------------------------------|-14-|
E|---------------------------------|----|

[Verse 2]
        Bm                                      A       G                               A
 And it rained that day,        conspiracy, one more anomaly
        Bm                                      A       G                               A
When I was younger it was simple, you didn't need to question everything
        Bm                                      A       G                               A
     It seems you never know,                   which direction life will blow
        Bm                                      A       G                               A
    You never know what someone's thinking    until    they're just about to go

[Chorus]
        A
I'm unsettled by the weather, it's getting stranger
        G
Should it be this good right now, are we in some kind of danger
        A
Is this atmosphere just me, or is sky too blue
        G
It's too perfect somethings got to give, I'm going under where are you

[Instrumental]

[Guitar Solo]   
Наверх