Аккорды «Rob Zombie»

Rob Zombie
Роб Зомби (англ. Rob Zombie, настоящее имя: Роберт Каммингс, англ. Robert Cummings; р. 12 января 1965) - основатель и вокалист группы White Zombie. Распустил группу после первой соло-пластинки, проданной в первую же неделю в большем количестве, чем все пластинки за историю группы. Альбом назывался Hellbilly Deluxe и вышел в 1998 году. Ремиксы некоторых треков с этого диска вышли в 99-м под названием American Made Music To Strip By. В 2001 году вышел ещё один студийный альбом The Sinister Urge. В… Читать полностью... Роб Зомби (англ. Rob Zombie, настоящее имя: Роберт Каммингс, англ. Robert Cummings; р. 12 января 1965) - основатель и вокалист группы White Zombie. Распустил группу после первой соло-пластинки, проданной в первую же неделю в большем количестве, чем все пластинки за историю группы. Альбом назывался Hellbilly Deluxe и вышел в 1998 году. Ремиксы некоторых треков с этого диска вышли в 99-м под названием American Made Music To Strip By. В 2001 году вышел ещё один студийный альбом The Sinister Urge. В 2003 году Роб дебютирует в качестве кинорежиссера с фильмом House of 1000 Corpses. Продолжение фильма выходит в 2005 под названием The Devil’s Rejects. В марте 2006 года выходит альбом Educated Horses. Альбом получился более прямолинейным, более «роковым». Зомби отходит от техно-индустриального звучания старых альбомов. Сам Роб меняется, он избавляется от дредов, возвращаясь к своему натуральному, светлому цвету волос. Альбом также приносит изменения в составе группы, в ней появляются два новых музыканта: Джон 5 из команды Мэрилина Мэнсона и Томми Клюфтос, бывший барабанщик Тэда Нюджента и Элиса Купера. Они заменяют Майка Риггса и Джона Темпесту, которые покинули группу в 2003 году для участия в других проектах. Родной брат Роба Зомби - Майкл Каммингс, вокалист группы Powerman 5000. Студийные альбомы * 1998 — Hellbilly Deluxe * 2001 — The Sinister Urge * 2006 — Educated Horses * 2010 — Hellbilly Deluxe 2 * 2013 — Venomous Rat Regeneration Vendor Ремейки, Ремиксы * 1996 — SuperSexy Swingin’ Sound * 1999 — American Made Music to Strip By Сборники * 2003 — Past, Present & Future * 2006 — 20th Century Masters: Millennium Collection: The Best of Rob Zombie Концертные альбомы * 2007 — Zombie Live Синглы * 1998 — Living Dead Girl * 1999 — Superbeast * 2001 — Demon Speeding * 2001 — Never Gonna Stop (The Red Red Kroovy) * 2001 — Feel So Numb * 2006 — Foxy Foxy * 2006 — American Witch * 2006 — Let It All Bleed Out Трибьюты * 2002 — The Electro-Industrial Tribute to Rob Zombie Фильмография * 2003: Дом 1000 трупов (House Of 1000 Corpses) * 2005: Изгнанные дьяволом (The Devil’s Rejects) * 2007: Хэллоуин (Halloween) * 2009: Хэллоуин 2 (Halloween II) * 2009: The Haunted World of El Superbeasto (анимированный) * 2011: Tyrannosaurus Rex * 2013: Повелители Салема (Lords Of Salem) Скрыть...
Популярные аккорды Rob Zombie:
алфавиту | просмотрам | случайно
  • 1st Riff (repeated many times)                                              
    G-------------------------------------------------------------------------------
    D-------------------------------------------------------------------------------
    A---3--3--3--------1--3--1------------------------------------------------------
    E------------1--3---------------------------------------------------------------…
  • Intro
    
    G---||--------------------------------------------------------------------
    D---||*-------------------------------------------------------------------
    A---||*-------------------------------------------------------------------
    D---||---4--4--4-----4--4--2--2-----4--4--4-----4--4--2--2-----4--4--4----…
  • INTRO:
    
    GTR1:
    D|-----------------------------------------|
    A|-----------------------------------------|
    F|-----------------------------------------|
    C|-00-12-10-12-10-12-----88-12-8--77-10-12-| X2
    G|-00-12-10-12-10-12-X3--88-12-8--77-10-12-|
    C|-00-12-10-12-10-12-----88-12-8--77-10-12-|
    
    GTR2:…
  • *INTRO:
    
    GTR1:
    Eb|---------------------|
    Bb|---------------------|
    Gb|---------------------|
    Db|-3-00--3-0-3-00--6-5-| x1
    Ab|-3-00--3-0-3-00--6-5-|
    C#|-3-00--3-0-3-00--6-5-|
    
    GTR2:
    Eb|---------------------|
    Bb|-6-----6---6----/9-8~|
    Gb|---77----7---77------|
    Db|---------------------|…
  • Tune from low to high strings: C, G, C, F, A, D
    
    
    BPM=100
    
    Second part of intro: (its too hard for me to figure out the 1st half)
    D|-----------|
    A|-----------|
    F|--10-/9-6--|
    C|--10-/9-6--|
    G|---8-/7-4--|
    C|-----------|
    
    Verse:
    D|--------------|
    A|--------------|
    F|--------------|
    C|--6/8-8-8-8-8-|
    G|--6/8-8-8-8-8-|
    C|--6/8-8-8-8-8-|
    
    Chorus:
    D|-----------------------|-----------------------|
    A|-----------------------|-----------------------|
    F|-----------------------|--------2/6-------2/8--|
    C|--1/3-3-3--3-3-3/4-4/1-|--1-1-1-----1-1-1------|
    G|--1/3-3-3--3-3-3/4-4/1-|--1-1-1-----1-1-1------|
    C|--1/3-3-3--3-3-3/4-4/1-|--1-1-1-----1-1-1------|…
  • Again your guit box should be tuned a 3rd of a step down drop c# tunning.
    
    Intro.
    E|-14-14-14-14-14-14-14-14-13-13-13-13-17-17-17-17-16-16-16-16-|
    B|-------------------------------------------------------------|
    G|-------------------------------------------------------------|
    D|-------------------------------------------------------------|
    A|-------------------------------------------------------------|
    E|-------------------------------------------------------------|
    
    
    Then…
  • INTRO:
    Eb|-------------------------------------|
    Bb|-------------------------------------|
    Gb|-------------------------------------|
    Db|-12/13/12/13/12--12/13--12/13--12-12-| X4
    Ab|-------------------------------------|
    C#|-------------------------------------|
    
    Eb|-----------------|
    Bb|-----------------|
    Gb|-----------------|
    Db|-1-0-0-00-00-0-0-|…
  • Tuning (CGCFAD)
              
              Intro/Chorus
              
              D-------------------------------
              A-------------------------------
              F-------------------------------
              C-2-2-2-2-2-2-2-3/2-2-2-2-2-2-2-…
  • Tuning: Standard
    Slide: /
    Pickup: p
                          
    e|---------|-------------------------------------------------|
    B|---------|-------------------------------------------------|
    G|---------|-------------------------------------------------|
    D|---------|-------------------------------------------------|
    A|-2/7p----|--4-44/7-77-4/7/4/7-7/4/7------------------------|
    E|------2--|--2-22/5-55-6/5/6/5-5/6/5------------------------|
    
    e|-----------------------------------------------------------|
    B|-----------------------------------------------------------|
    G|-----------------------------------------------------------|
    D|-----------------------------------------------------------|
    A|--4-44/7-77-4/7/4/7-7/4/7-4--------------------------------|
    E|--2-22/5-55-6/5/6/5-5/6/5-2--------------------------------|
    
    
    You…
  • For tunning, just imagine Drop D tuning and take it a whole step
    lower (C, G, C, F, A, D).I have no idea what pedal Riggs uses for
    this intro. Sounds like vibrato.
    
    BPM=150
    
    Intro-
    
    Outer space tones:
    
    D|------------------------------------------------------------------|
    A|------------------------------------------------------------------|
    F|------------------------------------------------------------------|
    C|--8-8-8-8-8-8-8-8-8/7-7-7-7-7-7-7-3-3-3-3-3-3-3-3-3/4-4-4-44-6-6/-|
    G|------------------------------------------------------------------|
    C|------------------------------------------------------------------|
    
    D|------------------------------------------------------------------|
    A|------------------------------------------------------------------|
    F|------------------------------------------------------------------|
    C|--8-8-8-8-8-8-8-8-8/7-7-7-7-7-7-7-3-3-3-3-3-3-3-3-3/2-2-2-2-2-----|
    G|------------------------------------------------------------------|
    C|------------------------------------------------------------------|
    
    Here's…
  • Drop D Tuning (Transposed To C)
    
    Intro:
    
    |------------------------------------|
    |------------------------------------|
    |------------------------------------|
    |----------5------------4---------3--|
    |--2--2-2--5----2--2-2--4----2-2--3--|
    |--2--2-2--5----2--2-2--4----2-2--3--|
    
    Verse:
    
    |---------|
    |---------|
    |---------|
    |---------|
    |--2-2-2--|
    |--2-2-2--|…
  • Tuning (CGCFAD)
              
              Intro
              
              D------------------------------------------------------------
              A------------------------------------------------------------
              F------------------------------------------------------------…
Наверх