Аккорды Roger Alan Wade - Bear Loves Honey

Добавлено: @romashka
Дата добавления: 06 Января 2024г.
Рейтинг:
0.0
Просмотров: 38
I saw Mr. Wade playing this song with a cappo on 2nd fret, but I'm sure that this 
one also fits it, too.

Normal tuning

Intro:

e------------------------------------------------------0--0-0--------------|
b--------------------------------------------------------------------------|
g----------------------0--0-0--0-0-0--0-0----2--2-2--2--------2-0--0--0-0--|
d-0--0-0--0-0-0--0-0----------------------2--------------------------------|
a--------------------2-----------------------------------------------------|
E--------------------------------------------------------------------------|

           *start strumming
e-----------2--------------------------------------------------------------
b-----------3--------------------------------------------------------------
g-----------2--------------------------------------------------------------
d--4-4-2--0(0)-------------------------------------------------------------
a--------------------------------------------------------------------------
E--------------------------------------------------------------------------

Refrain:
  D
I love you more than a bear loves honey
  G                                         
I love you more than a banker loves money
  A                                        (A, Bb, C)
I love your cute little Whoop Dee Doo
  D
I work all day like a bar-old mule
     G
Just dreamin‘ of your Deedledum-Deedledoo
  A
I love you so much it ain’t even funny
  A
I love you more tha a bear loves honey

1st Verse:

  G
I know you know I love goin‘ fishin‘
D
Cast into the Cat-tails knowin‘ your wishin‘
   G                                     D
My rusty old truck is rattlin‘ down your drive
      G
But I trade my old swiss-armee-knife,
D
beer in the cooler and the bass on the line
        A                               D
just to walk down Brainerd Road by your side

Refrain

2nd Verse:
  G
I know you know you deserve somethin‘ better
       D
Than a japanese car and an old german sheperd
G                                      D 
One won’t run and the other can hardly walk
      G
But I got a bunch of tickets for the lottery
         D
And if I ever get over this loosin‘ street
          A                                       D
I’m gonna buy you a car that flies and a dog that talks

At least: 
Refrain 2 times
Instrumental 1 time
Refrain 1 time
Музыка не только фактор облагораживающий, воспитательный. Музыка – целитель здоровья (Бехтерев)
Мы стремимся к созданию контента, соответствующего всем нормам законодательства и уважающего интеллектуальную собственность. Мы также придаем большое значение тому, чтобы не задеть никого и не оскорбить чьи-либо чувства. Если у вас есть вопросы или претензии по размещенному материалу, пожалуйста, сообщите нам об этом на указанный адрес электронной почты: [email protected].
Шрифт
-
0
+
Прокрутка
-
0
+
Стоп
Наверх