Аккорды «Rufio»

Rufio
Rufio были сформированы в 2001, когда Jon Berry, их первый басист, был первокурсником в колледже а остальные три участника Scott Sellers, Mike Jimenez, и Clark Domae были в на последнем курсе старшей школы в Rancho Cucamonga. Sellers и Berry были знакомы в течение некоторого времени и их интересы объединяли гитары и игра на них. Sellers и Berry подходили друг другу, в смысле того что у них было очень много общих интересов и они начали играть вместе в различных группах. Через некоторое время пацаны… Читать полностью... Rufio были сформированы в 2001, когда Jon Berry, их первый басист, был первокурсником в колледже а остальные три участника Scott Sellers, Mike Jimenez, и Clark Domae были в на последнем курсе старшей школы в Rancho Cucamonga. Sellers и Berry были знакомы в течение некоторого времени и их интересы объединяли гитары и игра на них. Sellers и Berry подходили друг другу, в смысле того что у них было очень много общих интересов и они начали играть вместе в различных группах. Через некоторое время пацаны вдвоем приобрели 4-track, чтобы записать то, что они играли. После того, как Sellers и Berry записались, они дали послушать свои записи Mike Jimenez, и предложили ему играть на барабанах вместе с ними. Вскоре присоединился Domae, и стал завершающим звеном в создании группы. Пацаны выбрали название Rufio. Rufio - это лидер Потерянных Мальчиков, из произведения Питер Пэн. Дебютный альбом Rufio "Perhaps, I Suppose..." был записан и издан в 2001 на лэйбле The Militia Group. Затем группа вернулась в июне 2003 с альбомом MCMLXXXV, который был записан при помощи Nick Rasculinecz. Этот мужчина записывал Foo Fighters и Rancid. Летом 2003 Rufio поехали на Vans Warped в поддержку своего альбома. И третий их альбом, The Comfort of Home, был издан в июле 2005. Турили вместе MxPx и Relient K. В 2007 группа объявила о своем распаде. Тем не менее группа сыграла несколько концертов в 2008 и 27 декабря 2009 барабанщик Terry Stirling Jr. анонсировал EP "The Loneliest". Так же Rufio заявили что они записывают лонгплей "Anybody Out There", который выпущен 27 июля 2010 с последующим всемирным туром в его поддержку. Текущий состав: Scott Sellers - вокал/гитара Clark Domae - гитара/вокал Taylor Albaugh - бас-гитара Terry Stirling Jr. - барабаны Выбывшие участники: Mike Jimenez - барабаны Jon Berry - бас-гитара Дискография: Альбомы: Perhaps, I Suppose... (2001 The Militia Group) MCMLXXXV (2003 Nitro Records) The Comfort of Home (2005 Nitro Records) Anybody Out There (июль 27, 2010 The Militia Group) Синглы, EP: Rufio EP (2003 Nitro Records) Above Me (Acoustic) 7" (2007 во время Farewell Tour в South America) The Loneliest EP (январь 19, 2010) Little World (27 Июля 2010 The Militia Group) Скрыть...
Популярные аккорды Rufio:
алфавиту | просмотрам | случайно
  • / = slide
    ~ = let ring
    * = palm mute
    p = pull off
    h = hammer on
    x = deadnote
    x
    x= pickslide
    x
      
      Intro: guitar 1                                                              
    e|-----------------------------------------------------------------------------|
    B|-----------------------------------------------------------------------------|
    G|-12~--12~--10~----------------12~--12~--10~----------------------------------|
    D|--x----x----x----10-------10---x----x----x----10------10---------------------|
    A|-10~--10~---8~--8--8-10-8-----10~--10~---8~--8--8-10-8-----------------------|
    E|-----------------------------------------------------------------------------|…
  • Tuning: Drop D (DGCF)
    
    0:08
    1.
    |-----------------------------|
    |-----------------------------|
    |---------------3~---------2~-|
    |-0~----333x----------332x----|
    
    2.
    |-----------------------------|
    |-----------------------------|
    |---------------3~---------2~-|
    |-0~----333x----------332x----|
    
    3.
    |-----------------------------|
    |-2~--------------------------|
    |---------------3~---------2~-|
    |-------333x----------332x----|
    
    4.
    |-----------------------------|
    |-2~--------------------------|
    |---------------3~---------2~-|
    |-------333x----------332x----|
    
    0:41
    5.
    |--------------------|
    |----------2~-2/5420-|
    |-3~-3/5~-5----------|
    |--------------------|
    
    6.
    |--------------------|
    |----------2~-2/5420-|
    |-3~-3/5~-5----------|
    |--------------------|
    
    7.
    |--------------------|
    |----------2~-2/5420-|
    |-3~-3/5~-5----------|
    |--------------------|
    
    8.
    |--------------------|
    |----------2~--------|
    |-3~-3/5~-5----------|
    |--------------------|…
  • Intro
    G-----------------------------
    D----------------------------- Repeat with a
    A-2--------------------2------ /0 before the 2
    E---0-0h2h4-0-2-4-0-0h5--6542-/
    
    Verse (4x)
    G-----------------------------
    D-----------------------------
    A-222222----------------------
    E--------000000-444444-222222-
    
    Pre-Chorus…
  • Tuning:E A D G (standard)
    *= let ring
    listen carefully during the intro it is easy to mix up the bass with the guitars.
    
    intro
    G|-9-----9-----9-10------10----10-9-----9---9----10------10------------------|
    D|--10-10-10-10----10-10--10-10---10-10---10-10---10-10--10-10---------------|
    A|---------------------------------------------------------------------------|
    E|---------------------------------------------------------------------------|
    
    G|-22222-0000--2222-0000-----------------------------------------------------|
    D|---------------------------------------------------------------------------|
    A|---------------------------------------------------------------------------|
    E|---------------------------------------------------------------------------|
    
    G|-9-----9-----9-10------10----10-9-----9---9----10------10-------------------|
    D|--10-10-10-10----10-10--10-10---10-10---10-10---10-10--10-10----------------|
    A|----------------------------------------------------------------------------|
    E|----------------------------------------------------------------------------|
    
    G|-22222-0000--2222-0-2-3-5-3-2-0--------------------------------------------------|
    D|---------------------------------------------------------------------------------|
    A|---------------------------------------------------------------------------------|
    E|---------------------------------------------------------------------------------|
    
    G|---5-4-5-7-5-5-4-5-7-5--22222-00000-22222-00000----------------------------|
    D|---------------------------------------------------------------------------|(X2)
    A|---------------------------------------------------------------------------|
    E|---------------------------------------------------------------------------|
    verse:
    G|---------------------------------------------------------------------------|
    D|---------------------------------------------------------------------------|
    A|------------------000000--------333333-------------------------------------|(X3)
    E|-111111--3333333--------1111111--------333333------------------------------|…
  • ~ - let ring out
    PM... - palm mute
    p - pull off
    h - hammer on
    
    
    Intro:  Guitar 1
    e|---------------------------------------------------------------------------|
    B|---------------------------------------------------------------------------|
    G|------------11~--11-13-14--16~---------------------------------------------|
    D|7~-2-2--2~---x----x--x--x---x----------------------------------------------|
    A|7~-2-2--2~---9~---9-11-12--14~---------------------------------------------|
    E|5~-0-0--0~-----------------------------------------------------------------|…
  • Intro
    e|---------------------------------------------------------|
    B|---------------------------------------------------------|
    G|-7-7---------------6-7-6--------4-4----------------------|
    D|-7-7-0-4-5-7----7-7-------7-5-4-4-4-0-4-5-7----4-5-------|
    A|-5-5------------7-7-------------2-2------------4-5-------|
    E|----------------5-5----------------------------2-3-------|
    
    e|---------------------------------------------------------|
    B|---------------------------------------------------------|
    G|--7-7-7-6-6-----------------7-7-7-6-6-7----7-7-7-7-7-7---|
    D|--x-x-x-x-x-5-5-0-0-4-4-7-7-x-x-x-x-x-x-x2-x-x-x-x-x-x---|
    A|--5-5-5-4-4-----------------5-5-5-4-4-5----5-5-5-5-5-5---|
    E|---------------------------------------------------------|
    
    Verse…
  • Key: A
    
    Tuning: Standard EADGBe
    
    Chords used:
    A -   x02220
    D -   xx0232
    F#m - 244222
    E -   022100
    
    
    Intro: A D F#m D x4
    
    Bass:
          A         D        F#m       D
    G|---------|---------|---------|---------|
    D|-7-7-7-7-|-0-0-0-0-|-4-4-4-4-|-0-0-0-0-|
    A|---------|---------|---------|---------|
    E|---------|---------|---------|---------|…
  • Key: A
    
    Tuning: Standard EADGBe
    
    Chords used:
    F#m -  244222
    E/G# - 476xxx
    A -    x02220
    D -    xx0232
    E -    022101
    
    Intro: F#m-E/G#-A--F#m-E/G#-D x2
    
    Guitar 2:
       F#m   E/G#      A       F#m   E/G#…
  • Key: E
    
    Tuning: Standard EADGBe
    
    Chords used:
    C#m7 - x42400
    A -    x02200 or x02220
    E -    022100
    B -    x24400 or x24442
    B/D# - x69800
    C#m -  x46600 or x46654
    
    
    Intro: x2
           C#m7              A…
  • Key: E
    
    Tuning: Standard EADGBe
    
    Chords used:
    C#m -  x46654
    A -    x02220
    E -    022100 or 079900
    B -    x24442
    F#m -  244222
    Abm -  466444
    B/D# - x698xx
    
    
    Intro: C#m--A-E-B/Eb x3, C#m--E-G#m, C#m--E-B/Eb x2
    
    
    Verse…
  • Chords used
    
    C-    x32010
    C/B-  x2x010
    Am-   x02210
    F-    133211
    G-    320033
    Em-   022000
    
    Verse 1:
                 C
    You're all i see these days
               C/B Am
    but you're so  far away
                  F
    this…
  • Key: C
    
    Tuning: Standard EADGBe
    
    Chords used:
    C -  x32010
    G -  320003
    Am - x02210
    F -  133211
    Dm - xx0231
    
    
    Inro: Am
    
    
    Verse 1:
    F
    Cannot fight this feeling
           C       G
    That's all you want to make…
  • X=palm mute
    /=slide down
    
    Intro
    (feedback)
    e|----------------------------------------------
    B|----------------------------------------------
    G|----------------------------------------------
    D|------------7-7xxx7-7xxx------------7-7xxx7-7-
    A|4-4xxx4-4xxx5-5xxx5-5xxx4-4xxx4-4xxx5-5xxx5-5-
    E|2-2xxx2-2xxx------------2-2xxx2-2xxx----------
    
    e|7-5-4-5-4-0---
    B|------------0-
    G|--------------
    D|--------------
    A|--------------
    E|--------------
    
    Verse
    
    e|-------------------------------------------------------0---
    B|----------------------------------------------10-9---9---0-
    G|6-6-666-6-6-666------------------------------------11------
    D|4-4-444-4-4-444--------------------------------------------
    A|---------------6-6-666-6-6-666-7-7-777-7-7-777-------------
    E|---------------4-4-444-4-4-444-5-5-555-5-5-555-------------
    
    Pre-chorus
    
    e|----------------------------------
    B|10---10-12-10-12-14-12-10-12-10-9-
    G|---9------------------------------
    D|----------------------------------
    A|----------------------------------
    E|----------------------------------
    
    e|-------------------------------
    B|10---10-12-10-14-15-14-12-10-9-
    G|---9---------------------------
    D|-------------------------------
    A|-------------------------------
    E|-------------------------------
    
    e|----------------------------------
    B|10---10-12-10-12-14-12-10-12-10-9-
    G|---9------------------------------
    D|----------------------------------
    A|----------------------------------
    E|----------------------------------
    
    e|-----------------
    B|10---10-12-10-14-
    G|---9-------------
    D|-----------------
    A|-----------------
    E|-----------------
    
    Chorus
    
    e|------------------------------------------------------------
    B|------------------------------------------------------------
    G|------------------------------------------------------------
    D|---------------7-7-777-7-7-777------------------------------
    A|4-4-444-4-4-4445-5-555-5-5-5557-7-777-7-7-7776-6-666-6-6-666
    E|2-2-222-2-2-222---------------5-5-555-5-5-5554-4-444-4-4-444
    
    Bridge
    
    e|-----|----------
    B|-----|----------
    G|-----|----------
    D|7---9|7-9-------
    A|5-7-7|5-7-4-4-44
    E|--5--|----2-2-22…
  • Key: F#
    
    Tuning: Standard EADGBe
    
    Chords used:
    F# -    244322
    C# -    x46664
    Ebm -   x68876
    B -     x24442
    F#/Bb - x143xx
    C#/F -  143xxx
    Abm -   466444
    
    
    Intro:
    
    Part 1: Ebm-C#/F-F#-B x4
    
    Part 2: B--C#--Ebm--C#…
  • Intro - 1st part (not 100%, but sorta close - its hard to hear)
    e|---------------------------------------------------------------------------|
    B|----------6--------------6--------------6-----------6--------------6-------|
    G|-----7------7---7------7-----7-------7---------7------7-------------7--(x2)|
    D|---5---5------5-----7-------------8----------------------------------------|
    A|--------------------------------------------6----6------6--6h8p6-------8---|
    E|---------------------------------------------------------------------------|
    
    Intro…
  • Key: B
    
    Tuning: Standard EADGBe
    
    Chords used:
    Abm -  466444
    E -    022100
    B -    x24442
    F# -   244322
    B/D# - x698xx
    
    
    Intro: 
    
    Part 1:
    Abm-E-B-F# x2
    
    
    Part 2:
    G#m--E--B--F# x2
    
    
    Verse 1:
        Abm…
  • GUITAR 1'S PARTS:
    -----------------
    Intro:
    e|---------------------------------------------------------------------------|
    B|---------------------------------------------------------------------------|
    G|---------------------------------------------------------------------------|
    D|6-6-6x-----------------2-2-2x--4-4-4x--6-6-6x-----------------2-2-2x-------|
    A|6-6-6x---9-9--9-9-9--9-2-2-2x--4-4-4x--6-6-6x---9-9--9-9-9--9-2-2-2x-------|
    E|4-4-4x---6-6--6-7-7--7-0-0-0x--2-2-2x--4-4-4x---6-6--6-7-7--7-0-0-0x-------|
    
    Intro…
  • *-let it ring
    /-slide 
    ?-I kinda forgot
    h-hammer
    x-i think you know already
    
    INTRO
    G|---------------------------|
    D|---------------------------|
    A|---------------------------|
    E|---0--?/?--0*--5--3-2-2-3--|
    
    VERSE (4x)
    G|------------|
    D|------------|
    A|---------3--|
    E|---2--3-----|
    
    It's…
  • --------------------------------------------------------|
    -------7------------------------------------------------|
    -6h7-7--9-6-7-7p6h7-9-7-6h7-----------------------------|
    --------------------------------------------------------|
    --------------------------------------------------------|
    --------------------------------------------------------|
    
    --------------------------------------------------------|
    -------7------------------------------------------------|
    -6h7-7--9-6-7-7p6h7-9~----------------------------------|
    --------------------------------------------------------|
    --------------------------------------------------------|
    --------------------------------------------------------|
    
    --------------------------------------------------------|
    -------7------------------------------------------------|
    -6h7-7--9-6-7-7p6h7-9-7-6h7-----------------------------|
    --------------------------------------------------------|
    --------------------------------------------------------|
    --------------------------------------------------------|
    
    --------------------------------------------------------|
    -------7------------------------------------------------|
    -6h7-7--9-6-7-7p6h7-9~-11~-12-12-12-12-11-11-11-11------|
    --------------------------------------------------------|
    --------------------------------------------------------|
    --------------------------------------------------------|…
  • Intro X1
    |e|------------------------|
    |B|------------------------|
    |G|-9-5-4-0---5-7-9-10p9-9-|
    |D|-5-x-------x-x-x-x----x-|
    |A|-7-8-----3-3x5-7-8----8-|
    |E|------------------------|
    
    Bridge X4
    |e|-------------------|
    |B|-------------------|
    |G|-99999999-10101010-|
    |D|-xxxxxxxx-xxxxxxxx-|
    |A|-77777777-88888888-|
    |E|-------------------|
    
    Break…
  • EADG
    
    Intro
    1.
    G|-------------------------------------------------|
    D|-------------------------------------------------|
    A|-------------------------------------------------|
    E|-10\3-3-3-3-33-5-5-5-5-55-2-2-2-2-22-3-3-3-3-xxx-|
    
    2.
    G|------------------------------------------------------------------------|
    D|------------------------------------------------------------------------|
    A|---------------------------------------------------------2~----4~----00-|
    E|-3-3-3-3-33-5-5-5-5-55-2-2-2-2-22-3-3-3-3-33-3~----5~-------------------|
    
    Verse
    "Make…
  • Key: B
    
    Tuning: Standard EADGBe
    
    Chords used:
    Abm -   466444
    E -     022100
    F# -    244322
    B -     x24442
    F#/Bb - x143xx
    
    
    Intro: G#m--E-F# x4
    
    Guitar 2:
          Abm            E          F#
    e|-------------|-----2---0-|-----------|
    B|---0-4-0-2-0-|---0---0---|-4-2-0---0-|
    G|-3-----------|-3---------|-------3---|
    D|-------------|-----------|-----------|
    A|-------------|-----------|-----------|
    E|-------------|-----------|-----------|
    
    
    Verse…
  • Intro: (2x) 
    G|-----------------------------------------------------------------------------| 
    D|-----------------------------------------------------------------------------| 
    A|--------5-----------8-8-8-7-7-7------------5----------10-10-10---------------|…
  • Tuning: Standard 
    
    | h: hammer-down
    
    
    e|--------------------------------------------------|
    B|--------------------------------------------------|
    G|--------------------0-----------------------------|
    D|-4-4-4h7-4-0----0--0-2----------------------------|
    A|-5----------0h1---1-------------------------------|
    E|--------------------------------------------------|
    
    or
    
    e|--------------------------------------------------|
    B|--------------------------------------------------|
    G|--------------------------------------------------|
    D|-4-4-4h7-4-0------5-------------------------------|
    A|-5-------------5-5-7------------------------------|
    E|------------0h6-6---------------------------------|
    
    e|-1----0----1--------------------------------------|
    B|-1----1----3--------------------------------------|
    G|-2----2----2---3----------------------------------|
    D|-3----2----0---3----------------------------------|
    A|-3----0--------1----------------------------------|
    E|-1----0-------------------------------------------|…
  • DROP D TUNING
    
    PM... - palm mute
    v - vibrato
    * - pinch harmonic
    t - finger tapping
    ^ - bend
    
    GUITAR 1'S PARTS:
    -----------------
    Intro:
    e|---------------------------------------------------------------------------|
    B|------8vvvvvvvvvvvvvvvvvvv--(Put…
  • Tuning: EADG
    
    Intro
    1.
    G|---------------------------------------------------------------------------------|
    D|-10-10--10-10-10--10-10-10--10-10-10--10-10-10--10-10-10--10-10-10--10-10-10--10-|
    A|-8--8---8--8--8---8--8--8---8--8--8---8--0--0---0--0--0---0--0--0---0--0--0---0--|
    E|---------------------------------------------------------------------------------|
    
    2.
    G|---------------------------------------------------------------------------|
    D|-10-10--10-10-10--10-10-10--10-10-10--10-10-10--10-10-10--10-10-10--10-10x-|
    A|-8--8---8--8--8---8--8--8---8--8--8---8--0--0---0--0--0---0--0--0---0------|
    E|---------------------------------------------------------------------------|
    
    3.
    G|------------------------------------------------------------------------------|
    D|---------------------------------------------------------------10-12/14-10-12-|
    A|-----------------00-000-000-000-0----------------1212-121212-12---------------|
    E|-11-111-111-111-1----------------11-111-111-111-1-----------------------------|
    
    4.
    G|-------------------------------------------------------------------------------|
    D|---10--10--10--10--10--10--10--10--10--10--10--10-10101010\9999\7777-----------|
    A|-88--88--88--88--00--00--00--00--88--88--88--88---------------------10101010-7-|
    E|-------------------------------------------------------------------------------|
    
    Verse
    "So…
  • Key: A
    
    Tuning: Standard EADGBe
    
    Chords used:
    F#m -  244222
    E/G# - 476xxx
    E -    022100
    A -    x02220
    D -    xx0232
    C#m -  x46654
    
    
    Intro: F#m--E--D--C#m(hold)
    
    
    Verse:
    F#m     E         D
    Feeling locked…
  • symbols:
    /=slide
    p=pull off
    x=palm mute
    
    intro: guitar does some fast action and then you come in 
    |G|--------------------------------------------------------------------|
    |D|--------------------------------------------------------------------|
    |A|-----------------5555555533333333----------------5555555533333333---|
    |E|-5555555566666666----------------5555555566666666-------------------|
    
    |G|--------------------------------------------------------------------|
    |D|-------------------------------------------------7777777755555555---|
    |A|-----------------5555555533333333-----------------------------------|
    |E|-5555555566666666----------------5555555566666666-------------------|
    
    |G|--------------------------------------------------------------------|
    |D|-----------------8/10-8-7-87575-------------------------------------|
    |A|-------------------------------7------------------------------------|
    |E|-6666666666666666---------------------------------------------------|
    
    verse:…
  • Guitar One Intro (x4):
    e|---------------------------------------|----------------------------------|
    B|---------------------------------------|----------------------------------|
    G|---------------------------------------|----------------------------------|
    D|11---------------14----------11--------|7---9---11-----6---7-----9---7----|
    A|---9-12-9-11-9-9----9-12-9-9----9-12-9-|--0---0----0-0---7---7-7---7---7--|
    E|---------------------------------------|----------------------------------|…
  • Tuning: Standard EADGBe
    
    Chords used:
    C/E-    03x01x
    F-      133211
    Gsus4-  330033 or 355533
    Am-     x02210 or 577555
    C-      x32010 or x35553 or 8-10-10-9-8-8
    G#-     466544
    G-      320033 or 355433
    D/F#-   2x023x
    Bb/D-…
  • Tuning:EADG
    
    | ~x : Ring and mute right away
    
    Intro
    1.
    G|-------------------------------------|
    D|-------------------------------------|
    A|-------------------------------------|
    E|-444~x----444~x----000~x----222~x----|
    
    2.
    G|-----4-3-------------4-3-------------8-7-------------4-3---------|
    D|---------4-3-4-1---------4-3-4-1---------8-7-8-4---------4-1-4-6-|
    A|-----------------------------------------------------------------|
    E|-444-------------444-------------000-------------222-------------|
    
    Verse
    "The…
  • Chords Used:
    Am-  x0221-
    C-   x32010
    F-   133211
    G-   320033
    Dm-  xx0231
    
    
    Intro:
    
    Guitar 1: Scott Sellers
    
    Am
    Am-C-F-G (x2)
    
    Guitar 2: Clark Domae
    E|-------------------------------------------------------
    B|-------------------------------------------------------
    G|-------2---0----------0----------2---0--------0h2------
    D|-2-------0----2-----0---0--2-------0----2---------0----
    A|---0h3----------0h3----------0h3----------3p0-------3--
    E|-------------------------------------------------------
    
    Verse…
  • Tuning: Half-Step Down (EbADG)
    
    
    Intro
    1.
    G||----------------------------------------------------------------------|
    D||----------------------------------------------------------------------|
    A||------------------------------------------------------------111-------|
    Eb|-00000000-55555555-5424-0-55555555-00000000-55555555-5424-0-----0~----|
    
    Verse
    "Bring…
  • Tuning: Half-Step Down (EbADG)
    
    Intro
    1.
    G||----------------------------------------------------------------------|
    D||----------------------------------------------------------------------|
    A||-5-66-6~----65-----------------65--5-66-6~----65----------------------|
    Eb|--------------74-4-55-5~--5555---7--------------74-4-55-5~---5555-777-|
    
    Verse
    "Meet…
  • Tuning: EADG
    
    Intro
    1.
    G|-------------------------------------------|
    D|-------------------------------------------|
    A|------------5--55--55------------5--55--55-|--x2
    E|-2-22-5--55-----------2-22-5--55-----------|
    
    2.
    G|-------------------------------6-4----------6-4-----|
    D|---------------------------0-0-----7-6--0-0-----7-6-|
    A|----------------------------------------------------|
    E|-2-0-5-4-2-0--2-0-5-4-2-0---------------------------|
    
    3.
    G|-------------------------------6-4----------6--9--9-|
    D|---------------------------0-0-----7-6--0-0---------|
    A|----------------------------------------------------|
    E|-2-0-5-4-2-0--2-0-5-4-2-0---------------------------|
    
    Verse
    "Give…
  • Tuning: EADG
    
    Intro
    1.
    G|-----------------------------|
    D|-----------------------------|
    A|--------2~-22~-4~-42~-0~-00~-|
    E|-0~-00~----------------------|
    
    Verse
    "These long, hot dead end nights..."
    2.
    G|-------------------------------------------------------------------------|
    D|-------------------------------------------------------------------------|
    A|----------22222222-44444444-00000000----------22222222-44444444-00000000-|
    E|-00000000----------------------------00000000----------------------------|
    
    Pre-Chorus
    "And…
  • Tuning: Half-Step Down (EbADG)
    
    Intro
    1.
    G||-------------------------------------------|
    D||-------------------------------------------|
    A||-66-1142x-------------66-1142x------22-555-|--x2
    Eb|------------55-88-330------------55--------|
    
    Verse
    "You…
  • Tuning: Half-Step Down (EbADG)
    
    Intro
    1.
    G||------------------------------------------------------------|
    D||------------------------------------------------------------|
    A||-----------------------------44x------------------4~--------|
    Eb|--------22x----00x----55x-----------22x----00x--------------|
    
    Verse
    "Bring…
  • Tuning: EADG
    
    
    Intro
    1.
    G|--------------------------------------------------------------------|
    D|--------------------------------------------------------------------|
    A|-------------------2-2222-22-222-2-2222-22-222----------------------|
    E|-4-44x----0-00x--------------------------------4-44x----0-00x-0~----|
    
    Verse
    "One…
  • Tuning: Half-Step Down
    
    Verse
    "Gold and silver dont mean a thing..."
    1.
    G||---------------------------------------------------------------------|
    D||---------------------------------------------------------------------|
    A||-6-66-664-44-4h6p4-2-22-22-----124-6-66-664-44-4h6p4-2-22-22-----124-|--x2
    Eb|--------------------------3-33------------------------------3-33-----|
    
    Pre-Chorus
    "You're…
  • Tuning: EADG
    
    Intro
    1.
    G|---------4-6-8-9-9-8-8-6------------------------|
    D|-------6------------------7-7-7---7-9-9-9-9-----|
    A|-4-4-4--------------------------7-----------9-7-|--x4
    E|------------------------------------------------|
    
    Verse
    "Wait…
  • Tuning: Drop D (DGCF)
    
    Intro
    1.
    |--------------------------|
    |--------------------------|
    |-333----------------------|
    |-----3-555-3-000-3-000-3--|
    
    2.
    |--------------------------|
    |--------------------------|
    |-333----------------------|
    |-----3-555-3-000-3-000-3x-|
    
    3.
    |--------------------------|
    |--------------------------|
    |-3------------------------|
    |-----3-555-3-000-3-000-3--|
    
    4.
    |--------------------|
    |-3333-3333-----0257-|
    |-------------02-----|
    |-----------03-------|
    
    Verse
    "How…
  • Tuning: EADG
    
    Intro
    1.
    G|--------------------------------------------|
    D|--------------------------------------------|
    A|-0-0~--0-2-3-33~--3-2-----------------------|--x2
    E|----------------------3-33~--3-2-1-11~--1-3-|
    
    Verse
    "As…
  • Tuning: Standard EADG
    
    
    Intro
    1.
    G|------------------------------------10-8--------------------|
    D|-------3-1-----------4~----4/11~---------11-8-10-11~--4~----|
    A|-4~--------4-1-3-4~-----------------------------------------|
    E|------------------------------------------------------------|
    
    2.
    G|-------------------------------------|
    D|-------------------------------------|
    A|-44444444----------11111111----------|
    E|----------44444444----------22222222-|
    
    Verse
    "Come…
  • Drop D  (DADG)
    
    Intro
    1.
    G|-------------------------------------------------------|
    D|-------------------------------------------------------|
    A|-------------------------------------------------------|
    D|-00000000-00000000-44444444-44444444-00000000-00000000-|
    
    Verse
    "Im…
  • Tuning: Half-Step Down (EbADG)
    
    
    Intro
    1.
    G||--------------------------------------------------------------------|
    D||--------------------------------------------------------------------|
    A||--------------------------------------------------------------------|
    Eb|-0-00-0-1-11-1111-3-33-3-5-55-5555-0-00-01-11-1111-3-33-3-5-55-5555-|
    
    Verse
    "I…
  • Tuning: EADG
    
    Intro
    1.
    G|-7/8~-|
    D|------|
    A|------|
    E|------|
    
    Chorus
    "Goodbye my lonely life..."
    2.
    G|--------------------------------5555----------------------------------------|
    D|-------------------00000000-1111-----5555555-4-5555555-4-3333333-2-33333333-|
    A|-11111111-00000000----------------------------------------------------------|--x2
    E|----------------------------------------------------------------------------|
    
    "They're…
  • Tuning: Half-Step Down (EbADG)
    
    Intro
    1.
    G||--------------------------------------------------------------|
    D||--------------------------------------------------------------|
    A||--------------------------------------------------------------|
    Eb|-0-0-0-00~-0~--0-00~--00-0--000-0-0-0-00~-0~--0-00--00-0--000-|
    
    Verse
    "You…
  • Tuning: Half-Step Down (EbADG) 
    
    Verse
    "All this waiting comes back to me..."
    1.
    G||------------------------------------------------------------------|
    D||------------------------------------------------------------------|
    A||---------------------------------33-355-566-6---------------------|
    Eb|--------------------------------7------------77-755-555-555-555-5-|
    
    "I…
  • Tuning: Standard EADG
    
    
    Intro
    1.
    G|------------------------------------------|
    D|------------------------------------------|
    A|----7~-642----9~-76-----7~-642------2~----|--x2
    E|-44--------44------7-44--------2222----2~-|
    
    Verse
    "Nowhere…
Наверх