Аккорды Sarah Shook & The Disarmers - Stone Door

Добавлено: @romashka
Дата добавления: 01 Апреля 2024г.
Рейтинг:
0.0
Просмотров: 34
Транспонировать - +
[Intro]

(Reverse strum)
   A
E -0-------------------------------
B -2-------------------------------
G -2-------------------------------
D -2-------------------------------
A -0---0-------------------2-2---2-
E -x-0---0-2-2-2-2br-2br-0-----0---

[Verse]
   E
E ----------------------------------------------
B ----------------------------------------------
G ----------------------------------------------
D ----------------------------------------------
A -------2----------------------2----------2----
E -0----------------0------------------0------0-
  Every time great clou-ouds begin to gather


                                     B
E ------------------------------------------------------
B ------------------------------------------------------
G ------------------------------------------------------
D ------------------------------------------------------
A -2----------2---------------2-----------2-2-----------
E -------0------------0--------------2--------2-2br-2br-
  And I hear far off thunder rumble low-ow

   E
E ------------------------------------------
B ------------------------------------------
G ------------------------------------------
D ------------------------------------------
A -------2--------------2-------------2-2---
E -0----------0------------------0--------0-
  Every time raindrops start to spatter

                         B        E7
E ----------------------------------------------
B ----------------------------------------------
G ----------------------------------------------
D ----------------------------------------------
A -2-------------2-----------2------------2---2-
E ----0------------------2-------------0----0---
  My mind slips back in time to Stone Door

[Verse]
 E
Fire in my heart, soaked to the bone
                                   B7
Mist billowing up from the forest floor
 E
Sense of wonder like I've never known
                       B7            E
I had a rainbow at my feet at Stone Door

[Chorus]
E7                A
I was stuck in a storm on a mountaintop
              E
Hanging by a branch over a sheer drop
             A
Swinging my legs over the side
                 B7           E
Like I'll never die-i-iiie--i-ie

[Instrumental]
A   B7   E

[Verse]
       E
In my memory you're so carefully erased
                                                  B7
You weren't there to hear wind's whisper turn to roar
         E
I never watched the rain run rivers down your face
                   B7            E
In my memory I'm alone at Stone Door

[Chorus]
E7                     A
Well I was stuck in a storm on a mountaintop
              E
Hanging by a branch over a sheer drop
             A
Swinging my legs over the side
                 B7           E
Like I'll never die-i-iiie--i-ie

Ohhh oh oh oh oh oh

[Instrumental/Solo]
E   E   B7   E   A   B7   E

[Chorus]
E7                     A
Well I was stuck in a storm on a mountaintop
              E
Hanging by a branch over a sheer drop
             A
Swinging my legs over the side
                 B
Like I'll never die-i-iiie

[Chorus]
                  A
I was stuck in a storm on a mountaintop
              E
Hanging by a branch over a sheer drop
             A
Swinging my legs over the side
                 B7           E
Like I'll never die-i-iiie--i-ie

[Outro]
A   B   E  A E

i'LL NEVER DIE

i'LL NEVER DIE  
Наверх