Аккорды «Saxon»

Saxon
Saxon — английская хеви-метал-группа, одна из ярких представителей новой волны британского хэви-метала. Группа образовалась в 1977 году на севере Англии и изначально называлась "Son Of A Bitch" (''Сукин сын''). В начале своей карьеры музыканты выступали в различных английских клубах и барах, зарабатывая себе концертную популярность. В состав команды входили вокалист Питер "Бифф" Байфорд, гитаристы Грэхам Оливер и Пол Куинн, басист Стив Доусон и барабанщик Пит Гилл. Сменив название на "Saxon", они… Читать полностью... Saxon — английская хеви-метал-группа, одна из ярких представителей новой волны британского хэви-метала. Группа образовалась в 1977 году на севере Англии и изначально называлась "Son Of A Bitch" (''Сукин сын''). В начале своей карьеры музыканты выступали в различных английских клубах и барах, зарабатывая себе концертную популярность. В состав команды входили вокалист Питер "Бифф" Байфорд, гитаристы Грэхам Оливер и Пол Куинн, басист Стив Доусон и барабанщик Пит Гилл. Сменив название на "Saxon", они подписали контракт с французским лейблом "Carrere", более известным своей работой с диско-коллективами, чем с хэви-метал-группами. В конце 70-х в Англии появилось много молодых команд, игравших в стиле, получившем название "новой волны британского тяжёлого металла". "Saxon" находились во главе этого движения наряду с "Iron Maiden" и "Diamond Head". Первый альбом, вышедший в 1979 году, представлял собой добротную хардроковую работу, но широкое внимание публики было привлечено к коллективу лишь после выхода "Wheels Of Steel'' - 1980. Популярность "Saxon" резко подскочила, и две их композиции - "Wheels Of Steel" и "747 (Strangers In The Night)" оказались в британском Топ 20. Группа закрепила свой успех с выпуском в том же самом году альбома "Strong Arm Of The Law", имевшего чистейший хэви-метал-саунд. Следующий диск "Denim And Leather" (1981) также оказался неплохим, и две композиции с него - "And The Bands Played On" и "Never Surrender" - попали в лучшую английскую двадцатку. "Saxon" провели успешное американское турне, а затем появились на фестивале "Монстры рока" в Донингтоне. Пик популярности группы пришёлся на 1982 год, когда вышел концертный альбом "The Eagle Has Landed", занявший пятую позицию в британских чартах. В этом же году Пита Гилла за ударной установкой сменил Найджел Глоклер из "Toyah" (в 1984-м Гилл присоединился к "Motorhead"). С данного момента "Saxon" занимали второе место среди металлических групп после "Iron Maiden". ''ГЛЭМОВАЯ ЗАРАЗА'' - 1983-1990. Выпуск "Power And The Glory" (1983) подтвердил высокое положение коллектива, хотя этот альбом уже был несколько ''американизированным''. После перехода группы на новый лейбл ''EMI - Records'' в 1984 году музыка англичан стала испытывать ещё более заметное влияние глэм-рока. Следующие альбомы ''Saxon'' - ''Crusader'' - 1984, "Innocence Is No Excuse"- 1985, ''Rock The Nations'' - 1986, ''Destiny'' - 1988 - имели неплохой коммерческий успех, но оттолкнули от группы большинство старых фанов. Уход Стива Доусона в 1986 году ещё более ухудшил позиции "Saxon". ''ВОЗВРАЩЕНИЕ БЛУДНОГО СЫНА'' - 1990-1996. В 1990 году "саксонцы"предприняли национальное турне, построенное на своём раннем популярном материале. Вскоре увидел свет и новый студийный альбом - великолепный "Solid Ball Of Rock" - 1991, ознаменовавший собой полное возвращение группы к своим корням. Вслед за ним последовали очередные релизы от британцев - ''Forever Free'' - 1992 и ''Dogs Of War'' - 1995. Сразу после выхода последнего группу покинул гитарист Грэхам Оливер, которого заменил Дуглас Скэрат - старый друг Найджела Глоклера. В таком обновлённом составе музыканты записали концертник ''The Eagle Has Landed - Part-2''. В начале 1995 года Оливер, Доусон и Гилл дали серию концертов под вывеской "Saxon". Это не понравилось Байфорду, и он начал оспаривать свои права на это название. ''СНОВА НА ПУТИ К ОЛИМПУ'' - 1997-2006. Избрав главной ареной своей деятельности Германию на волне популярности power-metal, ''Saxon'' нашли своё новое современное звучание. Альбомы ''Unleash The Beast'' - 1997, ''Metalhead'' - 1999, ''Killing Ground'' - 2001, ''Lionheart'' - 2004 привлекли к группе множество новых фанов, главным образом молодого поколения. Благодаря высочайшему профессионализму музыкантов, уникальному голосу Биффа Байфорда, над которым, кажется, время не властно, и при участии известного немецкого металл-продюсера Чарли Бауэрфайнда группа смогла выйти на новый уровень своего развития. А прямым доказательством того, что музыканты находятся в отличной концертной форме, послужил ''живой'' альбом ''The Eagle Has Landed - Part - 3'' - 2006. ''ВТОРОЕ ПРИШЕСТВИЕ'' - 2007 - НАШЕ ВРЕМЯ. Всемирный успех вернулся к ''Saxon'' с выходом в 2007 году альбома ''The Inner Sanctum'' - наконец-то группа была оценена по достоинству. В 2009 году неувядающие англичане выпустили диск ''Into The Labyrinth''… В 2011 году увидел свет их очередной студийник "Call To Arms". Продолжение следует… Скрыть...
Популярные аккорды Saxon:
алфавиту | просмотрам | случайно
  • Half step tuning
    
    eb[-------------------------------]
    Bb[-------------------------------]
    Gb[----------------------------3h5]
    Db[-7p5---7p5---7p5---7p5---3h5---]
    Ab[-----0-----0-----0-----0-------]
    Eb[-------------------------------]
    
    eb[---------------------]
    Bb[---------------------]
    Gb[---------------------]
    Db[-7p5-7p5-7p5-7-5-4(2)]
    Ab[----0---0----5-3-2(0)]
    Eb[---------------------]
    
    This…
  • Intro:
                                                               |- 3 -|
       1  +  2  +  3  +  4  +  5  +  6  + || 1  +  2  +  3  +  4  +  5  +  6  +
    e|-3--------3-----3--3--------3-----3-||-1--------1-----1--------------------|
    B|-3--------3-----3--3--------3-----3-||-1--------1-----1--------------------|
    G|-0--------0-----0--0--------0-----0-||-2-----------2-----2h3p2p0--------0--|
    D|-0-----------0-----0-----------0----||-3-----------3-----------------3-----|
    A|-2-----------2-----2-----------2----||-------------------------------------|
    E|-3-----------3-----3-----------3----||-------------------------------------|…
  • Main riff                Pre-Chorus      Chorus              
    d#|---------------------|-------|-------|--------------------|
    A#|---------------------|-------|-------|--------------------|
    F#|o----2-4-2----------o|o-4-4-o|o-6-6-o|o-7---------9------o|
    C#|o4---2-4-2-4---2--4-o|o-4-4-o|o-6-6-o|o-7----7----9----9-o|
    G#|-4---------4---2--4--|--2-2--|--4-4--|--5----7----7----9--|
    D#|---------------------|-------|-------|-------5---------7--|
    
    Two…
  • ..  - palm mute          /  - slide up to
       - slide down to      ~  - vibrato
     h  - hammer on          b  - bend
     p  - pull off            Suffixes for bend
                              ph - pinch harmonic…
  • intro 
    verse (it's the same). I can't figure out the rest of the song. So here it goes
    
    E|-------------------------|
    B|-------------------------|
    G|----9----7-----9----7--9-|
    D|------7--7-------7--7--9-|
    A|-0----------0------------|
    E|-------------------------|
    
    You…
  • ..  - palm mute          /  - slide up to
       - slide down to      ~  - vibrato
     h  - hammer on          b  - bend
     p  - pull off            Suffixes for bend
                              ph - pinch harmonic…
  • .  - palm mute           /  - slide up to
    \  - slide down to       ~  - vibrato
    h  - hammer on           b  - Bend
    p  - pull off            Suffixes for bend
    t  - tap                 f  - full bend    h - half bend
    ph…
  • Intro and chorus:
    
    guitar1
    |---------------------------------|
    |---------------------------------|
    |---------------------------------|
    |-7/9-9-9--5/7-7-7--7/9-9-9--5--7-|
    |-5/7-7-7--3/5-5-5--5/7-7-7--3--5-|
    |---------------------------------|
    
    
    guitar2:
    |---------------------------15-v17-|
    |-15-18--18p15----15---------------|
    |--------------17----h17-14--------|
    |----------------------------------|
    |----------------------------------|
    |----------------------------------|
    
    |b17r-15----------------b17b17b17b17r-17h15-------------|
    |--------18-15------------------------------18-18h15----|
    |--------------17-14---------------------------------17-|
    |--------------------17---------------------------------|
    |-------------------------------------------------------|
    |-------------------------------------------------------|
    
    |------------------------------------------------------|
    |------------------------------------------------------|
    |-14-17p14----1412----14------------------------------|
    |----------17-------15------15h17p15----15----------15-|
    |------------------------------------17----17-15-------|
    |------------------------------------------------17----|
    
    |-------------------------------------------|
    |-------------------------------------------|
    |-------------------------------------------|
    |--------------------------------17-15--17-|
    |----15-----------------------15------------|
    |-17----17-15-12-10-8---15/17---------------|
    
    
    Main…
  • standard tuning
    
    Intro & Verse:
    |---------------|
    |---------------|
    |---------------|
    |-5-5-5-5-5-5-5-|
     - - - - - - - - 
     Variation 1:
     |---------------|
     |---------------|
     |---------------|
     |-5-5-5-5-5-5-5-|…
  • Intro
    ---------------------------|
    ---------------------------|
    -----7-----5-----7---------|
    -----7-----5-----7-----5---|
    -0-0-5-0-0-3-0-0-5-0-0-3---|
    ---------------------------|a few times
    
    -----------------------|
    -----------------------|
    ----9--9-7---9--9-7----|
    ----9--9-7---9--9-7----|
    ----7--7-5---7--7-5----|
    -----------------------|
    
    Verse:
    --------------------------------------------|
    --------------------------------------------|
    -9----7----2----5--------9----7----2----5---|
    -9----7----2----5--------9----7----2----5---|
    --------------------------------------------|
    --------------------------------------------|
    
    -----------------------|
    -----------------------|
    ----9--9-7---9--9-7----|
    ----9--9-7---9--9-7----|
    ----7--7-5---7--7-5----|
    -----------------------|
    
    -----------------------|
    -----------------------|
    ----9--9-7---9--9-7----|
    ----9--9-7---9--9-7----|
    ----7--7-5---7--7-5----|
    -----------------------|
    
    Bridge:
    -----------------------------------|
    -----------------------------------|
    -----------------------------------|
    -5-------7--------9--------12------|
    -3-------5--------7--------10------|
    -----------------------------------|
    
    Chorus:
    -----------------------------|
    -----------------------------|
    -----------------------------|
    -5----7--7----7--x--7--x-7---|
    -3----5--5----5--x--5--x-5---|
    -----------------------------|Only…
  • Tempo is about 112 bpm
    Tuning: 1/2 Step Down
    Intro:
    e|----------------------------|--------------------------------------------|
    B|----------------------------|--------------------------------------------|
    G|----------------------------|--------------------------------------------|
    D|----------------------------|--------------------------------------------|
    A|-7h9-9-9--9-9--9-9--10-7----|---7h9-9-9--9-9--9-9--9-10------------------|
    E|-7---7-7--7-7--7-7--8--5----|---7---7-7--7-7--7-7--7-8-------------------|
    Fig…
  • Tuned one half step down (low to high D#G#C#F#A#d#)
    
     Intro/Verse                                    
    d#|-----------------------|------------------------------------------------|
    A#|-----------------------|----------------------------------------p.h-----|
    F#|-----------------------|---------------------every…
  • Tuning: 1/2 step down
    
    Intro/Chorus
    D#|--------------------------------------|---------------------------------|
    A#|--------------------------------------|---------------------------------|
    F#|--------------------------------------|------------------------------AH-|
    C#|--------------------------------------|---------------------------------|
    G#|-3p0-0-0-3p0-0-0-3p-0-5p0-6p0-5p0-3p0-|-3p0-0-0-3p0-0-0-3p-0-5p0-6p0-5~-|
    D#|--------------------------------------|---------------------------------|
    
    Verse
    D#|--------------------------------|---------------------------------------|
    A#|--------------------------------|---------------------------------------|
    F#|--------------------------------|---------------------------------------|
    C#|--------------------------------|---------------------------------------|
    G#|--------------------------------|-----------------------------3~--------|
    D#|-3p0-0-3p0-0-3p0-3p0-0-3p0-0-6~-|-3p0-0-3p0-0-3p0-3p0-0-3p0-0-----------|
    
    Pre…
  • standard tuning
    
    Intro:
    |-----------------|
    |-----------------|
    |-5-5-5-5-5-5-5-5-|
    |-----------------|
    
    Verse:             Variation 1:
    |-----------------|--------------------------|
    |-----------------|-----------5-7-5----------|
    |-----------------|---------7------7---------|
    |-5-5-5-5-5-5-5-5-|-5-5-5-5----------5-5-5-5-|
    
    Chorus:
    |-----------------------------------------|
    |-----------------------------------------|
    |-3-3-3-3-3-3-3-3-3-/-5-5-5-5-5-5-5-5-----|
    |-----------------------------------------|
    
    Bridge…
  • Tempo about 130 ish- mostly sixteenths and in 3/4 time
    
    Acoustic Intro(Gtr1)
    d#|-------------------------------------------------|
    A#|---0---0---0---0---0---0---0---0---0---0---0---0-|
    F#|o--------0-----------0-----------0-----------0---|
    C#|o----4-----------4-----------4-----------4-------|
    G#|-7-----------7-----------7-----------7-----------|
    D#|-------------------------------------------------|
    
    d#|-------------------------------------------------|
    A#|---0---0---0---0---0---0---0---0---0---0---0---0-|
    F#|---------0-----------0-----------0-----------0---|
    C#|-----4-----------4-----------4-----------4-------|
    G#|-5-----------5-----------5-----------5-----------|
    D#|-------------------------------------------------|
    
    d#|-------------------------------------------------|
    A#|---0---0---0---0---0---0---0---0---0---0---0---0-|
    F#|---------0-----------0-----------0-----------0---|
    C#|-----4-----------4-----------4-----------4-------|
    G#|-3-----------3-----------3-----------3-----------|
    D#|-------------------------------------------------|
    
    d#|-------------------------------------------------|
    A#|---0---0---0---0---0---0---0---0---0---0---0---0-|
    F#|---------0-----------0-----------0-----------0--o|
    C#|-----4-----------4-----------4-----------4------o|
    G#|-2-----------2-----------2-----------2-----------|
    D#|-------------------------------------------------|
    
    Gtr…
  • Tuning:Standard
    
    
    e|---------------------------------------------------------------------------|
    B|---------------------------------------------------------------------------|
    G|---------------------------------------------------------------------------|
    D|---9---9--9--9--9--7-------------------------------------------------------|
    A|---7---7--7--7--7--5----------------------2…
  • e -----------|
    b -----------|
    g -----------|
    d ----8------| (palm muted so that you just hear a crunchy sound)
    a ----6------|      ( follow the rithm)
    E -----------|
    
    
    e -------------------|
    b -------------------|
    g…
  • main riff
    d#|-------------------------------------------|----------------------------|
    A#|--------------3-3-3-3-------------------3--|---Gtr ii-during verse------|
    F#|---------2----2-2-2-2-2------------2----2--|------------------all…
  • ..  - palm mute          /  - slide up to
       - slide down to      ~  - vibrato
     h  - hammer on          b  - bend
     p  - pull off            Suffixes for bend
                              ph - pinch harmonic…
  • Intro - Lead (put lots of vibrato on the end notes of the licks/riffs)
    E|--------------------|    |----7--7h8p7------10b--|
    B|--------------------|    |--10----------10-------|
    G|---4--4h5p4-----7b--| or |-9---------------------|…
  • Clean Intro(Gtr1) let ring, obviously
    d#|---------0------------0----------------0-------|
    A#|-------0---0------------0------------0----0----|
    F#|o----9--------------------9--------8-----------|
    C#|o--9---------9------9-------9----9----------9--|
    G#|-7----------------7------------6---------------|
    D#|-----------------------------------------------|
    
    d#|---------0------------0----------------0-------|
    A#|-------0---0------------0------------0----0----|
    F#|-----5-------5------------5--------4--------4-o|
    C#|---5----------------5-------5----4------------o|
    G#|-3----------------3------------2---------------|
    D#|-----------------------------------------------|
    
    Gtr…
  • ..  - palm mute          /  - slide up to
     \  - slide down to      ~  - vibrato
     h  - hammer on          b  - bend
     p  - pull off            Suffixes for bend
                              ph - pinch harmonic…
  • Intro
    |---------------------------------------------------------------------|
    |---------------------------------------------------------------------|
    |------------------------3----------33-------------------3------------|
    |---------------------------------------------------------------------|…
  • standard tuning
    Intro: (00:15)
    |-----------------------------------|
    |-----------------------------------|
    |--5--5--5--5--3--3--3--3-----------|
    |-----------------------------------|
    Verse & Chorus : (00:29) We gonna…
  • Tuning: standard tuning
    
    | h  hammer-on
    | p  pull-off
    | ~  vibrato
    | b  bend
    | .  mute note
    | ps pick scrape
    
    
    Use distortion.
    
    I've added between brackets when a riff starts.
    
    Riff 1:
    e|--------------------------------------------------------------------------|
    B|--------------------------------------------------------------------------|
    G|--------------------------------------------------------------------------|
    D|--9-9--9---9-9----5----------2-------7---7-7---4---4-4---5---5-5---9------|
    A|--7-7--7---7-7----3----2-3-5---3-2---5---5-5---2---2-2---3---3-3---7------|
    E|--------------------------------------------------------------------------|…
  • Intro: (00:07)
    |-----------------------------------------------------|
    |------------------------4-5-4------------------------|
    |--------------5~--0-5-7-------5--------------5~------|
    |-5~--55~--3~--------------------5~--55~--3~------5~--|…
  • D#|-------------|------------------------------------|
    A#|-------------|-maybe-not-exact-number-but-you-get-the idea
    F#|-------------|------------------------------------|
    C#|-5-5-5-5p4---|-|pm-----------------|-5-5-5-5p4----|
    G#|-----------5-|---------------------------------5--|
    D#|-------------|-0-0-0-0-0-0-0-0-0-0-0--------------|
    
    
    D#|-------------------------------|
    A#|-------------------------------|
    F#|-------------------------------|
    C#|-|pm---------------|-----------|
    G#|---------------------5--5--5/7-|
    D#|-3-3-3-3-3-3-3-3-3-3-3--3--3/5-|
    
    
    D#|-----------------------------------|-------------|----------------------|
    A#|-----------------------------------|-1st-time----|-2nd-time-------------|
    F#|-----------------------------------|-------------|----------------------|
    C#|-|pm-------|-4-4--|pm-|-7-7--|pm-|-|-5-5-5-5p4---|--|pm-------|---------|
    G#|-------------2-2--------5-5--------|-----------5-|----------------------|
    D#|-0-0-0-0-0-0------0-0-0------0-0-0-|-------------|--3-2-0-3-2-0---------|…
  • d#|-----------------|-----------------|
    A#|-gtr1------------|-----------------|you can work out where the palm
    F#|-----------------|-----------------|muting is
    C#|-7---7-----7-----|-8---8-----8-----|
    G#|-5-5-5-5-5-5-5-5-|-5-5-5-5-5-5-5-5-|
    D#|-----------------|-----------------|
    
    d#|-----------------|-----------------|
    A#|-gtr2------------|-----------------|
    F#|-7-7-7-7-7-7-7-7-|-7-7-7-7-7-7-7-7-|
    C#|-7-7-7-7-7-7-7-7-|-8-8-8-8-8-8-8-8-|
    G#|-----------------|-----------------|
    D#|-----------------|-----------------|
    
    d#|-------------------------|
    A#|-main…
  • Standard Tuning.
    
    e-----------------------------------------|
    b-----------------------------------------|
    g-------9-------7-------6-------7---------|      x2
    d---7---7----7--7----7--7----7--7---------|
    a-0--------0-------0-------0--------------|
    E-----------------------------------------|
    
    
    e--12b---12-10----------------------------|
    b----------------12-12-10-12-12b-10-------|
    g-----------------------------------------|
    d-----------------------------------------|
    a-----------------------------------------|
    E-----------------------------------------|
    
    e-----------------------------------------------------|
    b-----------------------------------------------------|
    g-------9-------7-------6-------7---------------------|
    d---7---7----7--7----7--7----7--7---------------------|
    a-0--------0-------0-------0----------0-0-0-0-5-0-0-0-|
    E-----------------------------------------------------|
    
    there…
  • Intro:
    |------------------------------------------|
    |------------------------------------------|
    |-1~~~-1~~~-33~~~-3~~~~-331~~~-1~~~-1~~~-3-|
    |------------------------------------------|
    
    Pre-Verse:
    |-----------------|
    |-----------------|
    |-1-1-1-1-3-3-3-3-|
    |-----------------|
    
    Verse…
  • ..  - palm mute          /  - slide up to
       - slide down to      ~  - vibrato
     h  - hammer on          b  - bend
     p  - pull off            Suffixes for bend
                              ph - pinch harmonic…
  • ..  - palm mute          /  - slide up to
       - slide down to      ~  - vibrato
     h  - hammer on          b  - bend
     p  - pull off            Suffixes for bend
                              ph - pinch harmonic…
  • ..  - palm mute          /  - slide up to
       - slide down to      ~  - vibrato
     h  - hammer on          b  - bend
     p  - pull off            Suffixes for bend
                              ph - pinch harmonic…
  • ..  - palm mute          /  - slide up to
       - slide down to      ~  - vibrato
     h  - hammer on          b  - bend
     p  - pull off            Suffixes for bend
                              ph - pinch harmonic…
  • ..  - palm mute          /  - slide up to
       - slide down to      ~  - vibrato
     h  - hammer on          b  - bend
     p  - pull off            Suffixes for bend
                              ph - pinch harmonic…
  • ..  - palm mute          /  - slide up to
       - slide down to      ~  - vibrato
     h  - hammer on          b  - bend
     p  - pull off            Suffixes for bend
                              ph - pinch harmonic…
  • ..  - palm mute          /  - slide up to
       - slide down to      ~  - vibrato
     h  - hammer on          b  - bend
     p  - pull off            Suffixes for bend
                              ph - pinch harmonic…
  • ..  - palm mute          /  - slide up to
       - slide down to      ~  - vibrato
     h  - hammer on          b  - bend
     p  - pull off            Suffixes for bend
                              ph - pinch harmonic…
  • ..  - palm mute          /  - slide up to
       - slide down to      ~  - vibrato
     h  - hammer on          b  - bend
     p  - pull off            Suffixes for bend
                              ph - pinch harmonic…
  • ..  - palm mute          /  - slide up to
       - slide down to      ~  - vibrato
     h  - hammer on          b  - bend
     p  - pull off            Suffixes for bend
                              ph - pinch harmonic…
  • ..  - palm mute          /  - slide up to
       - slide down to      ~  - vibrato
     h  - hammer on          b  - bend
     p  - pull off            Suffixes for bend
                              ph - pinch harmonic…
  • Intro Solo
    E-15B17R15----------------------------------------------------
    B----------15B17R15-12----------------------------------------
    G----------------------14B16R14P12----12----12----12H14-12~~~-
    D----------------------------------14----14----14-------------
    A-------------------------------------------------------------
    E-------------------------------------------------------------
    
    E-------------15B17R15-17B19-17B19-
    B-15-17B19R17----------------------
    G----------------------------------
    D----------------------------------
    A----------------------------------
    E----------------------------------
    
    E-15-17B-15----------------------------------------
    B----------17-15-17~B19~-15------------------------
    G---------------------------16R14P12-14-12~-0-----
    D-------------------------------------------------
    A-------------------------------------------------
    E-----------------------------------------------_-
    
    E-----------------------------------10B12-
    B----------8---------7-8-10B12r10-8-------
    G--/9~--/9---9-9~-/9----------------------
    D-----------------------------------------
    A-----------------------------------------
    E-----------------------------------------
    
    E-12-14-15-17-17b19-17-15-14-15-14--------------------
    B----------------------------------15-14--14h15p14/12-
    G-----------------------------------------------------
    D-----------------------------------------------------
    A-----------------------------------------------------
    E-----------------------------------------------------
    
    E--------------------------------------------------
    B----12--------------------------------------------
    G-14----14-12----12~-------------------------------
    D-------------14-------14-12-----------------------
    A---------------------------14-13-12-------12-14/--
    E------------------------------------14-15---------
    
    
    Middle…
  • ..  - palm mute          /  - slide up to
       - slide down to      ~  - vibrato
     h  - hammer on          b  - bend
     p  - pull off            Suffixes for bend
                              ph - pinch harmonic…
  • ..  - palm mute          /  - slide up to
       - slide down to      ~  - vibrato
     h  - hammer on          b  - bend
     p  - pull off            Suffixes for bend
                              ph - pinch harmonic…
  • ..  - palm mute          /  - slide up to
       - slide down to      ~  - vibrato
     h  - hammer on          b  - bend
     p  - pull off            Suffixes for bend
                              ph - pinch harmonic…
  • ..  - palm mute          /  - slide up to
       - slide down to      ~  - vibrato
     h  - hammer on          b  - bend
     p  - pull off            Suffixes for bend
                              ph - pinch harmonic…
  • ..  - palm mute          /  - slide up to
       - slide down to      ~  - vibrato
     h  - hammer on          b  - bend
     p  - pull off            Suffixes for bend
                              ph - pinch harmonic…
  • ..  - palm mute          /  - slide up to
       - slide down to      ~  - vibrato
     h  - hammer on          b  - bend
     p  - pull off            Suffixes for bend
                              ph - pinch harmonic…
  • ..  - palm mute          /  - slide up to
       - slide down to      ~  - vibrato
     h  - hammer on          b  - bend
     p  - pull off            Suffixes for bend
                              ph - pinch harmonic…
  • ..  - palm mute          /  - slide up to
       - slide down to      ~  - vibrato
     h  - hammer on          b  - bend
     p  - pull off            Suffixes for bend
                              ph - pinch harmonic…
Наверх