Аккорды School Of Rock - School Of Rock

Добавлено: @romashka
Дата добавления: 10 Января 2016г.
Рейтинг:
0.0
Просмотров: 117
Транспонировать - +
 KEY:
---------------------------------------------------

 (#:##) - time progress into song presented
          in (minutes:seconds) format
    (#) - fret that is picked during a hold
     p  - pulloff
     h  - hard on, heheh
     b  - bend, followed by a number indicating
          what to bend to
     ~  - vibrato, or just give the note a little
          shake to make the note sound cooler.
          You know what i mean?
     :: - I used these to indicate stuff inside
          the bend as well
   & / - slides, / means slide up to # or just up
           means slide down to # or just down
     X  - mute indicated on string

---------------------------------------------------
SOLO 2
guitar 2: Zach
standard tuning
---------------------------------------------------

(3:19) solo 2 begins

e-----------------------------------------------
b-----------------------------------------------
g-7h9b11-(10)---------10p9p7--9--7~---7-------
d---------------------------------------9----9-9
a-----------------------------------------------
e-----------------------------------------------

(3:23) 

I keep my index on the 7th for this part, and
bar the 10th fret with the 4th finger

e----------------------------------------------
b------------10--------------10----------------
g-9 b 11 (10)-----9 b 11 (10)-------10p9p7-9-7-
d----------------------------------------------
a----------------------------------------------
e----------------------------------------------

(3:25)

on the bit i might pulloff 10 a few time quickly
to add a little flavah. :)

e----------------------------------------------------
b----------------------------------------------------
g---7-9-7-10p9p7---7--10p9p7---7---7-9-9 b 11~-------
d-9--------------9-----------9-----------------------
a----------------------------------------------------
e----------------------------------------------------
                         
e----------------------------------------------------
b----------------------------------------------------
g-7-9-7~*hold a bit-------7 h 9-10-7-----------------
d-------------------9p7h9-------------9-7-9~*hold----
a----------------------------------------------------
e----------------------------------------------------

(3:33) - solo reaches a peak, goes into crazy stuff

      *effect used here? maybe, yes, no?!
e----------------------------------------
b------15-----------15p12-------15p12----
g------12-----------------14p12-------12-
d-7-9---------12-14----------------------
a----------------------------------------
e----------------------------------------
                    
e--------------------------
b--------------------------
g-10-12-10-12-10-12-10-10~-
d--------------------------
a--------------------------
e--------------------------

(3:36)
e----------------------------------------------------
b----------------------------------------------------
g----------10-12-10-12b13r12p10-12-10~-12-10~--------
d-12-10-12------------------------------------12~12~-
a----------------------------------------------------
e----------------------------------------------------

(3:40)    
               while holding bend  *USE WAH*
e----------------:::::::::::::::::------------
b----------------::13------13-13::--*13-15~*--
g----10-12b14----::12--12--12-12::------------
d-12------------------------------------------
a---------------------------------------------
e---------------------------------------------

e---------------------------------------------
b-------18-20-18---20b22-*let ring------------
g-19-19---------------------------------------
d---------------------------------------------
a---------------------------------------------
e---------------------------------------------

(3:47) distortion stuff comes up

crank distortion, pedal if u have 
get close to the amp to get feedback as u do this
Listen to the song to see when it feedbacks. I think
he uses a wah here to so it makes it deep but with 
that weird effect.

1 - strum with picking thumb, other fingers readying
    the tremolo bar
2 - mute with fret hand thumb or your choice.
3 - wah or tremolo to ben the sound
F - peak feedback

  1  2      3  F
e--------------
b-o--x-x-x--o--   Repeat this distortion pattern
g-o--x-x-x--o--   a bit, it varies. Listen ot the
d-o--x-x-x--o--   song if you want that exact
a-o--x-x-x--o--   pattern
e-o--x-x-x--o--

(3:53)                    with the drums here
e----------------------------------------------
b-15-13----------------------------------------
g-------14-12----------------------------------
d-------------15-12----12-12~----12~---12~-----
a-------------------15-------------------------
e----------------------------------------------

(3:56)
                                hold this note
                                and peak feedback
e------------------------------------------------
b------------------------------------------------
g-------10--12b14*hold----14r12p10---------------
d-10-12----------------------------12~~----------
a------------------------------------------------
e------------------------------------------------

-end
Наверх