Аккорды Scotty Hasting - Runnin'

Добавлено: @romashka
Дата добавления: 15 Мая 2024г.
Рейтинг:
0.0
Просмотров: 6
[Intro]
       D          C         G/B         Gm/Bb
E -------|-------2/3-|-----------}--------------|
B -5-/7--|-7\5-3-----|-7\5-3-----|-7\5-3--------|
G -------|-----------|-------3/4-|-------2/3--2-|
D -------|-----------|-----------|--------------|
A -------|-----------|-----------|--------------|
E -------|-----------|-----------|--------------|

[Verse]
D
 Girl, I've  been a selfish fool
 C
Drownin' myself in 90 proof
G/B
But honestly I swear it's true
    Gm/Bb
I'm learnin'

 D
Now I've come to understand
       C
I was holdin' matches in my hand
G/B                           Gm/Bb
Every time another bridge was burnin'

[Chorus]
         D
Now I'm runnin'
           C
Angel I'm runnin'
       G  G/B  Gm/Bb   D
Oh I'm runnin' home to you

     D            C         G/B         Gm/Bb       D
E -------|-------2/3-|-3-/5-5/7-}-7-7/10----|----------|
B --5/7--|-7\5-3-----|----------|--------11-|-11-------|
G -------|-----------|----------|-----------|----12-11-|
D -------|-----------|----------|-----------|----------|
A -------|-----------|----------|-----------|----------|
E -------|-----------|----------|-----------|----------|

[Verse]
D
A woman with a lesser faith
          C                        G/B
Would've had all that she can take
                           Gm/Bb
Yeah your patience sure is something

D
What kind of love is that?
 C                               G/B
You gibve more than you get back
                    Gm/Bb
God knows I don't deserve it

[Chorus]
        D
So I'm runnin'
           C
Angel I'm runnin'
       G/B     Gm       D
Oh I'm runnin' home to you

[[Instrumental]
D    C    G    D

[Break]
 D                            C
Baby leave the porch light on
                      G
It won't be that long
                         D
I'll be home before the morning

 D
Where I take off my boots
C
Is where I'm gonna  plant my roots
G                          D
I wn't be a ramblin' man nooo more

[Chorus]
         D
And I'm runnin'
           C
Angel I'm runnin'
         G               D
And I'm runnin' home to you

         D
And I'm runnin' (I'm runnin')
           C
Angel I'm runnin' (oh I'm runnin')
         G               D
And I'm runnin' home to you

[Outro]
           D
Yeah, I'm runnin'
           C
Angel I'm runnin'
        G       Gm      D
Oh I'm runnin' home to you

     D         C           G/B  Gm D
E ------------2/3-|-3-2-0-----|----2-|
B --5/7-7-5-3-----|-------3-0-|----3-|
G ----------------|-----------|-3--2-|
D ----------------|-----------|----0-|
A ----------------|-----------|----x-|
E ----------------|-----------|----x-|
Но если и музыка нас оставит, что будет тогда с нашим миром? (Гоголь)
Мы стремимся к созданию контента, соответствующего всем нормам законодательства и уважающего интеллектуальную собственность. Мы также придаем большое значение тому, чтобы не задеть никого и не оскорбить чьи-либо чувства. Если у вас есть вопросы или претензии по размещенному материалу, пожалуйста, сообщите нам об этом.
Шрифт
-
0
+
Прокрутка
-
0
+
Стоп
Наверх