Аккорды «Screeching Weasel»

Screeching Weasel
Screeching Weasel — один из самых популярных и почитаемых в андеграундных панк-кругах Америки коллектив, взявшийся за гитары (и прочие звукоизвлекающие устройства) в 1986 году. Отсчет жизни Screeching Weasel начинается с 1986 года, когда вокалист и гитарист Ben Weasel, сходив на шоу Ramones, решился сам сотворить нечто аналогичное. После многочисленных гаражных репетиций со своими друзьями, он решился накатать первое демо. По сусекам наскребли 200 долларов, которых хватило на то, чтобы за одну ночь… Читать полностью... Screeching Weasel — один из самых популярных и почитаемых в андеграундных панк-кругах Америки коллектив, взявшийся за гитары (и прочие звукоизвлекающие устройства) в 1986 году. Отсчет жизни Screeching Weasel начинается с 1986 года, когда вокалист и гитарист Ben Weasel, сходив на шоу Ramones, решился сам сотворить нечто аналогичное. После многочисленных гаражных репетиций со своими друзьями, он решился накатать первое демо. По сусекам наскребли 200 долларов, которых хватило на то, чтобы за одну ночь записать 27 песен в хардкоровом стиле, позаимствованном у Circle Jerks Black Flag и Angry Samoans. Спустя год команда напечатала первую сотню своего дебютного альбома (на дорожках которого присутствовало это самое демо), который переиздан на CD лишь в 1998 году с уймой бонус-трэков. В записи его, кроме Ben'а засветились Johnny Jughead (гитара), Vinnie Bovine (бас) и Steve Cheese (ударные). За два года Screeching Weasel понабрались ума который им позволил не только изабавиться от бас-гитариста (нового стали звать Fish) но и весьма продвинуться в музыке 'Boogadaboogadaboogada' содержал на одну песню меньше, на один аккорд больше и некоторое количество слушабельности сверху. На мини-альбоме 'Punkhouse’ фигурировал новый гитарист (и иногда бас-гитарист) Danny Vapid и это оказалась единственная студийная запись с барабанщиком Brian Vermin. Группа продолжала играть грязный панк-рок, граничащий с хардкором с туповатыми веселыми текстами и предельно заводными ритмами. Но рубежом стал лишь третий лонгплей 'My Brain Hurts', который продюсировал AI Sobrante (одно время бывший ударником Green Day), и где состав стабилизировался до нижеизложенной формы. Danny Panic — ударные, Jughead — гитара, Ben Weasel — вокал, Dave Naked — бас-гитара и Danny Vapid — еще одна гитара. Screeching Weasel сменили ориентацию и ударились в более традиционный панк-рок, лежащий где-то посередине между Ramones и NOFX, хотя и страдающий от более низкобюджетного продюсирования. Команда окончательно перешла под крыло лейбла Lookout Records, где оказалась в огромной и пестрой компании себе подобных команд типа Green Day и Mr. T Experience. Правда, перед записью 'My Brain Hurts’ Ben Weasel чуть было не распустил Screeching Weasel, в пользу своего нового проекта, который сначала назывался Gore Gore Girls, а затем Wiggle. Но босс Lookout Records Lorence Livermore не захотел иметь дело с кем попало и потребовал именно Screeching Weasel. Слово 'Wiggle' не пропало зазря и успешно перекочевало в название альбома 1992 года. 'Wiggle' — самый спорный диск группы записанный с новым басистом John Personality, он по мнению многих (в том числе и самих музыкантов) вышел коряво. Однако как ни странно, существует и диаметрально противоположная точка зрения — звук получился куда более солидный, нежели ранее, да и сильных и веселых песен немало — 'l Was A High School Psychopath', 'Teenage Slumber Party', ‘Joanie Loves Johnny', 'Like A Parasite', и даже ковер-версия песни новых друзей Screeching Weasel группы Queers — 'Danny Is A Wimp' (оригинально называвшаяся 'July Is A Wimp'). После записи ‘Wiggle' в группе начался очередной разброд и скука чтобы хоть как-то справиться с этими перманентными гадостями потехи ради Screeching Weasel решили записать целиком дебютный альбом Ramones Этот почин впоследствии поддержали еще две команды — Vindictives и Queers, соответственно переигравших альбомы Ramones ‘Leave Home' и 'Rocket To Russia'. Все эти издания носили чисто виниловый характер и не издавались на лазерном носителе вплоть до недавнего времени. Диск 'Ramones' целиком (плюс четыре бонуса) напечатан в формате CD под названием 'Beat Is On The Brat'. К 1993 году Screeching Weasel уже были чуть ли не самым популярным панк-коллективом Америки за пределами Epitaph Records. Команда допрогрессировалась до того, что записала весьма неоднозначный диск ‘Anthem For A New Tomorrow', где попыталась (не всегда удачно) применить ряд приемов, позаимствованных у панк-групп новой формации типа Offspring или тех же NOFX (кстати вокалист последних Fat Mike подпевает в песне 'Peter Brady' с этого диска). Screeching Weasel уже были квартетом — John Personality где-то слетел с возу и на бас пришлось переключаться Danny Vapid'у. В том же году Vapid и Panic записались на альбоме Queers 'Beat Off', a Ben Weasel уже не в первый раз продюсировал запись Queers, все это в очередной раз подчеркнуло родственность душ и музыки этих двух самых почитаемых коллективов Lookout Records. К 1994 году группа пришла в совершенно разрозненное состояние. Vapid покинул команду (у него уже был другой проект — Sludgeworth, записавший альбом в 1991 году и переизданный четыре года спустя с другим названием и обоймой экстра-трэков), поэтому на бас-гитаре при записи 'How To Make Enemies And Irritate Friends’ работал Mike Dirnt из Green Day. Screeching Weasel мгновенно получили кучу оплеух от упертых панк-дегенератов, обвинявших из-за этого группу в продажности буржуйским шпионам. Сразу после выхода этого диска группа распалась, точнее говоря перетекла в новое состояние — выжившие три музыканта сменили псевдонимы на настоящие имена (Dan Shafer — бас и вокал, Ben Foster — гитара, вокал и Dan Sullivan — ударные) и назвали свою панк-банду Riverdales. Green Day не мудрствуя лукаво сразу взяли Riverdales в качестве группы поддержки во время своего европейского турне, а в 1995 году был издан первый диск, не очень удачный и явно уступающий традиционной продукции Screeching Weasel. Riverdales сразу стали обзывать дешевой подделкой под Ramones, даже их внешний вид подтверждал такой эпитет. Тем не менее первый альбом распродался недурно. Второй диск Riverdales 'Storm The Streets' учел ошибки предшественника и сварился просто в потрясающую веселую панк-похлебку. К величайшему разочарованию Ben'а, этот диск был продан почти в десять раз меньшим тиражом — видать, после первого расстройства публика решила второй раз судьбу не испытывать. И зря. В 1996 году Screeching Weasel реформировались составе 1993 года для записи лишь одного (как думалось поначалу) лонгплея, для чего был подписан контракт с Fat Wreck Chords (лейблом вокалиста NOFX). Более веселый и мелодичный нежели ранние творения группы, диск 'Bark Like A Dog' вышел на удивление удачным и милым, и вполне соответствует наилучшим представлениям о современном поп-панке. На удивительно современно звучащем мини-альбоме ‘Major Label Debut' (который на самом деле вышел все опять же на Lookout Records) вместо Dan Panic и Dan Vapid играют трое музыкантов из группы Squirtgun вместе с Ben Weasel и Jughead. Еще один реверанс в сторону современного калифорнийского панка — выпущенный на Fat Wreck 'Television City Dream', он записан в том же составе, то есть Ben, Jughead, Mass Giorgini — бас, Lumley — ударные и Zac Damon — гитара. За сим последовали второй сборник старых раритетов, добитый концертным компакт-диском ‘Thank You Very Little' и еще одна попытка найти новое звучание (не самая удачная) — меланхоличный грязноватый емо-панк 'Emo'. Последний релиз ‘Teen Punks In Heat' — веселый поп-хардкороеый альбом, уместивший двадцать трэков, не смог не порадовать старых фэнов этой живой легенды американского панк-андеграунда. Дискография: Screeching Weasel 1987 Boogadaboogadaboogoda! 1989 Punkhouse EP 1989 My Brain Hurts 1991 Wiggle 1992 Ramones 1992 Anthem For A New Tomorrow 1993 How To Make Enemies And Irritate People 1995 Kill The Musicians (compilation) 1995 Bark Like A Dog 1996 Mqor Label Debut 1998 Television City Dream 1998 Beat Is On The Brat (compilation) 1998 Emo 1999 Thank You Very Little (compilation) 2000 Teen Punks In Heat 2000 SLUDGEWORTH: What's This? 1991 Losers Of The Year 1995 RIVERDALES: Riverdales 1995 Storm The Streets 1997 Скрыть...
Популярные аккорды Screeching Weasel:
алфавиту | просмотрам | случайно
  • [Intro - A with a few quick changes to D]
    
    [Verse]
    A        D         A              D        A
      I just know your name but still just the same
      D                                E
    I see you in my dreams at night,…
  • Main Part
    G:---------------------------------------------------------------
    D:---------------------------------------------------------------
    A:----7>---------------------------------------------------------
    E:-7>------------------------------------------------------------
    
    Riff…
  • Verse 1
    G ------------------------------------------------------------------
    D ------------4--21-----------4--21------------4--21----------------
    A ---2222------------------------------------------------4444--6666- x 2
    E…
  • (INTRO)
    G:--------------------------------------
    D:-------------------------------------- 
    A:222222222-----------------------------  
    E:---------555555555-000000000-333333333
    
          (RIFF 1)
    G:--------------------------------------
    D:--------------------------------------
    A:--------------------------------------
    E:7777-2222-3333-0000-------------------…
  • intro
    G|---------------------------------------------------------------------------|
    D|---------------------------------------------------------------------------|
    A|---4-4-4-4-4-4-4-4-4-4-2--4-4-4-4-4-4-4-4-4-4--2-4-4-4-4-4-4-4-4-4-4-2-0----|
    E|---------------------------------------------------------------------------|
    verse
    G|---------------------------------------------------------------------------|
    D|---------------------------------------------------------------------------|
    A|---4-4-4-4-4-4-4-4-4-4-2-0-0-0-0-0-0-2-2-2-2-2-2---------------------------|
    E|---------------------------------------------------------------------------|
    chorus
    G|---------------------------------------------------------------------------|
    D|---------------------------------------------------------------------------|
    A|---4-4-4-4-7-7-7-7-0-0-0-0-2-2-2-2-----------------------------------------|
    E|---------------------------------------------------------------------------|
    Ramones…
  • Intro
    G:---------------------------------------------------------------
    D:---------------------------------------------------------------
    A:-4>-2>---------------------------------------------------------
    E:-------2>------------------------------------------------------
    
    Verse
    G:---------------------------|------------------------------------
    D:---------------------------|------------------------------------
    A:-4>----4>-4>-------4>----4>|-2>----4>-----------------------------
    E:----2>-------2>-4>----2>---|----2>----------------------------
    
    Intro…
  • Intro:
          Db5 Gb5 Ab5 Db5
    e---------------------|
    b---------------------|
    g---6~---6~-------6---|
    D---6~---6~---4-6-6---|
    A---4~---4~---4-6-4---|
    E-------------2-4-----|
    
    Verse:
              Db5         Gb5     Ab5…
  • intro
    G|---------------------------------------------------------------------------|
    D|---------------------------------------------------------------------------|
    A|---------5->---------------------------------------------------------------|
    E|----7->--------------------------------------------------------------------|
    verse
    G|---------------------------------------------------------------------------|
    D|---------------------------------------------------------------------------|
    A|---------5->---------------------------------------------------------------|
    E|----7->-------5->----------------------------------------------------------|
    chorus
    G|---------------------------------------------------------------------------|
    D|---------------------------------------------------------------------------|
    A|----7-7-7-7-5-5-5-5--------------------------------------------------------|
    E|--------------------5-7-7-7-5-7-7-7----------------------------------------|…
  • intro
    |----------------------------|
    |----------------------------|
    |----------------------------|
    |----------------------------|
    |------7------5-------5---7--|
    |--5------5-------5----------|
    
    1..2..3..4
    
    she always has…
  • Intro/Riff 1:
    e|---------------|
    B|---------------|
    G|---------7-----|
    D|-7-7-7-7-7-5-5-|
    A|-7-7-7-7-5-5-5-|
    E|-5-5-5-5---3-3-|
    
    Riff 2:
    e|------------------------------------------------------------|
    B|------------------------------------------------------------|
    G|-------------------------7--------------7-------------7-----|
    D|-7-7-7-77-7-7-7--5-5-5-5-7-5-5--7-7-7-7-7-5-5-7-7-7-7-7-5-5-|
    A|-7-7-7-77-7-7-7--5-5-5-5-5-5-5--7-7-7-7-5-5-5-7-7-7-7-5-5-5-|
    E|-5-5-5-55-5-5-5--3-3-3-3---3-3--5-5-5-5---3-3-5-5-5-5---3-3-|
    
    Riff…
  • E          C      A
    We skate - we are cool
    E          C      A
    We skate - we are straight
    E          C      A
    We skate - helluv raw
    E          C      A
    We skate - fuck the law
    
    
    G
    We are skaters tired and true
    B
    Lookout…
  • VERSEx4
    g]----------]
    d]----------]
    a]----4>-6>-]
    e]-4>-------]
    
    PRE-CHORUSx2
    g]-------]
    d]-------]
    a]----6>-]
    e]-6>----]
    
    CHORUS
    g]-------------]
    d]-------------]
    a]----4>-6>-4>-]
    e]-4>----------]
    
    VERSEx2
    PRE-CHORUSx2
    CHORUSx2
    
    BRIDGE
    g]-------------]
    d]-------------]
    a]-------6>-4>-]
    e]-2>-4>-------]
    
    STUPID…
  • F# F F# F F# F F# F
    
    
    F#  B  E  B
    
         F#                  B                            E     B
    You left me there at the shopping mall, you left me standing
    F#                  B                      E…
  • Verse 
    | ------------------------------------------------- | 
    | ------------------------------------------------- |  
    | -12-12-12-12----------------------12-12-12-12---- | 
    | -12-12-12-12-12-12-12-12-10101010-12-12-12-12----…
  • *= 4 **= 8
    
    Verse
    E----------------------------------------------------------------
    B----------------------------------------------------------------
    G---11**---------------------------------------------------------
    D---11---11*---12*-----------------------------------------------
    A----9---11----12------------------------------------------------
    E---------9----10------------------------------------------------
    
    Chorus
    E----------------------------------------------------------------
    B----------------------------------------------------------------
    G----------------11**---12/11---11-------------------------------
    D---9**---11**---11-----12/11---11-------------------------------
    A---9-----11------9-----10/…
  • G    D#   D    A#   B  
    e-|------------------------|
    B-|------------------------|
    G-|------8----7------------|
    D-|-5----8----7----8----10-|
    A-|-5----6----5----8----10-|
    E-|-3--------------6----8--|
    
    Main riff: G  D#  A#…
  • E                           ...A ...B ...A ...E ...A ...B ...A
    e---------------------------|
    B---------------------------|
    G---------------------------| (x8)
    D--9-9-9-9-9-9-9--7-6-------|
    A----------------------9-7--|
    E---------------------------|
    
    E…
  • A                       B        E
    Did you know that you live in a racist society
            A                          B
    Did you know you're the privileged class
        C#(pm)             B(pm)                A(pm)
    And everybody…
  • Intro:
    FA LA# DO (x3)
    FA LA# DO
    FA LA# (X4)
    
    
    FA                      RE  
    She's got a place to go when she gets angry
    FA                      RE  
    a place to go when she gets sad
    FA                      RE…
  • Normal Tuning
    Guitar 1:Medium Distortion
    Guitar 2:Clean
    
    /slide down
    \Side up
    
    
    Intro
    Guitar 1:
        A5    D A5 E5         x2
    e---------------------------|
    B----------7----------------|
    G----------7---9-99999999---|
    D---7-7777-7-7-9-99999999---|
    A---7-7777-5-7-7-77777777---|
    E---5-5555---5--------------|
    
    Riff…
  • VERSE:
    
     E------------3333-------|
     A--77777777--5555--3333-| (4X)
     D--99999999--5555--5555-|
     G--99999999--------5555-|
     B-----------------------|
     e-----------------------|
      you keep on trying too hard to make...…
  • Lead intro:
    (rhythm chords):     B^    E^   C#^         E^    B^  E^
    E----------12-11----------------12-11--------------------------11-
    B--(bass)--------12--(bass)--12-------12----12----12--12-12-12----
    G----------------------------------------11-----------------------…
  • F#                 C#
    e---------------------------------------|
    B---------------------------------------|
    G--------11-----------------------------|
    D--11-11-11-11-11-11--------11----------|
    A--9--9--9--9--9--9---11-11-11-11-11-11-|
    E---------------------9--9--9--9--9--9--|
    
    
    F#…
  • Intro
    Gtr 1 (2x before bass intro; 3x before Gtr 2; 6x before verse)
    e |----------------------------------------------|
    B |----------------------------------------------|
    G |-99999--11/9999---7/99999/799999--------------|
    D…
  • Intro
    G:---------------------------------------------------------------
    D:---------------------------------------------------------------
    A:----4>---------------------------------------------------------
    E:-5>----2>-0>---------------------------------------------------
    
    Verse
    G:---------------------------------------------------------------
    D:---------------------------------------------------------------
    A:----4>---------------------------------------------------------
    E:-5>----2>-0>---------------------------------------------------
    
    Chorus
    G:---------------------------------------------------------------
    D:---------------------------------------------------------------
    A:-5>----5>----5>------------------------------------------------
    E:----5>----5>----5>-0>------------------------------------------
    
    Verse
    Chorus
    Verse
    Chorus
    Verse
    Chorus
    
    Ending
    G:---------------------------------------------------------------
    D:---------------------------------------------------------------
    A:---------------------------------------------------------------
    E:-5--------------------------------------------------------------…
  • Legend:
    []-harmonic
    
    Gtr. I & II
    Chorus:
           Db5            Eb5
    e-----------------------------------|
    b-----------------------------------|
    g---6666-6666-1111-1111-1111-1111---|
    D---6666-6666-1111-1111-1111-1111---|
    A---4444-4444-1111-1111-1111-1111---|
    E-----------------------------------|
    
    Chorus…
  • [ B / G / E ] w/ Lead Riff A x4
    
    [Verse]:
    B                               G
      This used to be a place where we could walk the streets
      A                       E
    Unrestricted by imaginary fears
    B…
  • Verse/Intro
    
    
    e|----------------
    B|----------------
    G|---------4--6---
    D|---4--8--4--6---
    A|---4--8--2--4---
    E|---2--6---------
    
    
    Chorus
    
    "Dont you touch my car!!"
    
    e|----------------
    B|----------------
    G|---6------------
    D|---6------------
    A|---4------------
    E|----------------
    
    Lyrics
    
    Hey…
  • Intro and chorus
    G|---------------------------------------------------------------------------|
    D|---------------------------------------------------------------------------|
    A|-10----9--7-7-7-7----------------------------------------------------------|
    E|----10---------------------------------------------------------------------|
    
    verse
    G|---------------------------------------------------------------------------|
    D|---------------------------------------------------------------------------|
    A|-10----9-7-----------------------------------------------------------------|
    E|----10---------------------------------------------------------------------|
    
    wipe…
  • Ab
    What I wanna say I'm gonna say to you
        B                         Ab
    And what I wanna do I'm gonna do to you
    E
       And if you should decide that
    F#
       That you don't like it, get out
    B…
  • [ A / E / D ] x4
    
    [Verse]:
    A                D                 A  E
    Jeannie's having problems with her ovaries
              A       D        E
    She's got trouble with her tubes
           A             D            A…
  • [intro:]                                                           
       G#              D#              G#              D#              
    e|-4-4-4-4-4-4-4-4-----------------4-4-4-4-4-4-4-4---------------| 
    B|-----------------4-4-4-4-4-4-4-4-----------------4-4-4-4-4-4-4-4…
  • G                       C
    My head is much better now,
           G             D       G
    And I'm not walking into doors.
    G                          C
    I don't eat my vegetables now,
           G         D        G
    Because…
  • Intro/chorus  - just repeat as many times as needed
       ....I'm a highschool, psycopath....i need therapy
    e|---------------------------------------------
    B|---------------------------------------------
    G|---9--9---------7-------------------------99-
    D|---9--9--**--9--7--7-77---5--5------7--9--99-
    A|---7--7------9--5--7-77---5--5--**--7--9--77-
    E|-------------7-----5-55---3--3------5--7-----…
  • E|------------------------------------------------------------------------- 
    B|------------------------------------------------------------------------- 
    G|-----------------------------------5-555555555555555---------------------…
  • riff 1
    E - F# - E - D - C - D      E - F# - E - G - F#
    
    riff 2
    e------------------------------------------------------------------|
    B------------------------------------------------------------------|
    G----------------------2-2-2-4-5---7-7-7-5----7-7-7-5----7-7-7-5---|
    D------------2-2-2-4-5---------------------7----------7----------7-|
    A--2-2-2-4-5-------------------------------------------------------|
    E------------------------------------------------------------------|
    
    e-----------------------------------------------------|
    B-----------------------------------------------------|
    G---7-7-7-5---5-----7-7-7-5----7-7-7-5---7-7-7-5---5--|
    D---7-7-7-5-7-5--------------7-----------7-7-7-5-7-5--|
    A-----------7------------------------------------7----|
    E-----------------------------------------------------|
    
    
    [riff…
  • [ B / E / A / D ] x3
    [ B / D / A ]
    
    [Verse]
    B                                         D       E
    I'm sick of putting you down, pushing you around
    B                                         D       E
    I'm tired of making…
  • Tuning: Normal
    
    Riff 1:
    E---------------------------|
    B---------------------------|
    G---------------------------|
    D---------------------------|
    A----4-6-5-8-7-6------------|
    E----2-4-3-6-5-4 x's 14-----|
    
    End:
    E---------------------------|
    B---------------------------|
    G---------------------------|
    D---------------------------|
    A----4----------------------|
    E----2----------------------|…
  • e|---------------------------------------|
    B|---------------------------------------|
    G|------------------------------7-7---7--|   x4
    D|---7-777777-7-777777-7-777777-7-7-7-7--|
    A|---7-777777-7-777777-7-777777-5-5-7-5--|
    E|---5-555555-5-555555-5-555555-----5----|
    
    e|----------------------------------------------------------|
    B|----------------------------------------------------------|
    G|----------------------------------------------------------|…
  • intro
    E---------------------------------|
    B---------------------------------|
    G---------------------------------|
    D---------------------------------|
    A77777777-66666666-444444444444444
    E55555555-44444444-222222222222222…
  • A(pm)
          That thing you're listening to is called a compact disc
                        D(pm)                                A(pm)
    It's a method of conveying sound, it's square outside, inside it's round
    A(pm)…
  • e---------------------------------------------|
    b---------------------------------------------|
    g-4---------4---------4---------4--------3----|
    d-4----4----4----2----4----4----4--------3----|
    a-2----4----2----2----2----4----2--------1----|
    e------2---------0---------2------------------|
    
    e----------------------------------------|
    b----------------------------------------|
    g-4---------4---------4---------4--------|
    d-4----4----4----2----4----4----4--------|
    a-2----4----2----2----2----4----2--------|
    e------2---------0---------2-------------|
    
    e----------------------------------------------|
    b----------------------------------------------|
    g-6-------------------6---------------4--------|
    d-6----2--4--2--------6----2--4--2----4--------|
    a-4----2--4--2--------4----2--4--2----2--------|
    e------0--2--0-------------0--2--0-------------|
    
    e---------------------------------------------|
    b---------------------------------------------|
    g-4---------4---------4---------4--------3----|
    d-4----4----4----2----4----4----4--------3----|
    a-2----4----2----2----2----4----2--------1----|
    e------2---------0---------2------------------|
    
    e----------------------------------------|
    b----------------------------------------|
    g-4---------4---------4---------4--------|
    d-4----4----4----2----4----4----4--------|
    a-2----4----2----2----2----4----2--------|
    e------2---------0---------2-------------|
    
    e---------------------------------------------------------------|
    b---------------------------------------------------------------|
    g-6---------4----------6---------4----------6---------4---------|
    d-6----4----4----2-----6----4----4----2-----6----4----4----2----|
    a-4----4----2----2-----4----4----2----2-----4----4----2----2----|
    e------2---------0----------2---------0----------2---------0----|
    
    e---------------------|
    b---------------------|
    g-6---------4---------|
    d-6----4----4---------|
    a-4----4----2---------|
    e------2--------------|
    
    PM....................................
    e-----------------------------------------|
    b-----------------------------------------|
    g-4---------6---------4---------6---------|
    d-4----4----6----2----4----4----6----2----|
    a-2----4----4----2----2----4----4----2----|
    e------2---------0---------2---------0----|
    
    
    e-----------------------------|
    b-----------------------------|
    g-4--4--4--4--------6---------|
    d-4--4--4--4--4-----6----2----|
    a-2--2--2--2--4-----4----2----|
    e-------------2----------0----|
    
    e-----------------------------|
    b-----------------------------|
    g-4--4--4--4--------6---------|
    d-4--4--4--4--4-----6----2----|
    a-2--2--2--2--4-----4----2----|
    e-------------2----------0----|
    
    e-------------------------------------------|
    b-------------------------------------------|
    g-4---------6---------4---------6---------4-|
    d-4----4----6----2----4----4----6----2----4-|
    a-2----4----4----2----2----4----4----2----2-|
    e------2---------0---------2---------0------|…
  • Verse 1
       p.m.-----------------------------------|
    e|----------------------------------------|
    B|----------------------------------------|
    G|----------------------------------------|
    D|---9-----------9------9----------9------|
    A|---7---9---7---7------7--9---7---7---9--|
    E|-------7---5-------------7---5-------7--|…
  • both guitars    
    e|---------------------------------------------------------------------------|
    B|---------------------------------------------------------------------------|
    G|---------------------------------------------------------------------------|
    D|-------4----8----6---------------------------------------------------------|
    A|---4---2----6----4---------------------------------------------------------|
    E|---2-----------------------------------------------------------------------|…
  • Main Chord Progression
    e|-----------------|
    B|-----------------|
    G|----5---7-5---7--|
    D|-5--5-5-7-5-5-7--|
    A|-5--3-5-5-3-5-5--|
    E|-3----3-----3----|
    
    Lead Part
    e|--------------|
    B|--------------|
    G|-7-4-5-4------|
    D|---------5----|
    A|-----------5--|
    E|--------------|…
  • verses: A, E, G, D (all palm muted) 
    
    VERSE:         each x's 4 PM'D (first time)
    e|-----------------------------------------------------------| 
    B|-----------------------------------------------------------| 
    G|------------9-------------7--------------------------------|…
  • Chords used:
    
        E          B          A          C#
     _______    _______    _______    _______   
    e-------    -------    -------    -------
    B-------    -------    -------    -------
    G---9---    -------    -------…
  • Intro
    e|------------------------|
    B|------------------------|
    G|----------------777-----|
    D|-9999-9999-9999-777-777-|
    A|-9999-9999-9999-555-777-|
    E|-7777-7777-7777-----555-| x's 4
    
      Verse X2
    e|-----------------------------------------|
    B|-----------------------------------------|
    G|-----------------------99999-------------|
    D|-9999999-6666666-77777-99999-77777-99999-|
    A|-9999999-6666666-77777-77777-77777-99999-|
    E|-7777777-4444444-55555-------55555-77777-|…
  • [ E / B / D / A ] x4
    
        B
    Hey asshole do you feel all warm inside
               D               F#
    Lording it over a bunch of kids
              B
    You're no upright citizen you pig,
                        D…
  • Guitar I-Jughead
    Guitar II-Ben Weasel
    
    Legend:
    ~-let ring
    p-pull off
    
    0:00
    
    Gtr. II
    Verse:
                E5             C5             D5
    e-----------------------------------------------------|
    b-----------------------------------------------------|
    g---9-9-9-9-9-9-9-9-5-5-5-5-5-5-5-5-7-7-7-7-7-7-7-7---|
    D---9-9-9-9-9-9-9-9-5-5-5-5-5-5-5-5-7-7-7-7-7-7-7-7---|
    A---7-7-7-7-7-7-7-7-3-3-3-3-3-3-3-3-5-5-5-5-5-5-5-5---|
    E-----------------------------------------------------|
    
    (continued)…
  • 4/4
      Gtr I
      Wx6          E E E E E E E E   E E E E E E E E
    |------------|-----------------|-----------------|
    |------------|-----------------|-----------------|
    |------------|-4-4-4-4-4-4-4-4-|-4-4-4-4-4-4-4-4-|
    |------------|-----------------|-----------------|…
  • Intro: A G# F# D - A G# F# D - A G# F# D E-7th
    
    A                   F#                  D                 A
    You're, my little creepy crawl, pretty little heart attack
    A                F#                  D…
  • opening riff
    
    c g d f x 4
    
    
    c          g            d              f
    It isn't destiny the way that things ...
    c           g            d              f
    the changes alter us are a product ..... 
    
    c g 
    
    d…
  • [ A / E / D ] x4 (with lead)
    
    [Verse]
    A (pm)                                            D
      Time gets wasted every day, I watch the minutes tick away
       F#               E                D
    My brain is melting like…
  • A         G    C       D
    
    
    A         G    C       D
    Love to hate I love to hate
    A         G    C       D
    Got hate on my dinner plate
    A         G    C       D
    I love to hate, I love to hate
    A         G    C…
  • intro/verse:
    
    -----------------------------------|
    -----------------------------------|
    ---10----------------------8-8-8-8-|
    -10--10-----10-------8-----8-8---8-|
    8--------10---10---8-8-8---6-----6-|
    --------8----------6-6-6-----------|
    
    
    CHORUS:…
  • B  A  C  A#
    B  A  C  A#  B
    
    D D#  D D#  D D#  D D#   B
    D D#  D D#  D D#  D D#   B
    
    
    D D#  D D#  D D#  D D#  B
    Robert Plant is a slimy fuck
    D D#  D D#  D D#  D D#  B
    John Bonham man, he really sucked
    D D#  D D#…
  • F#  D  F#  D
    
    
    F#       D
    Used cars [x4]
    
    C#
    No money down sounds good to me. Got monthly payments til I'm 93
    
    F#       D
    Used cars [x4]
    
    C#
    I stopped to look and now I own. A school bus and a '71 Olds.
    
    
    F#…
  • Intro : x2 
    | ----------------------------------- | 
    | ----------------------------------- | 
    | ----------------------99999999----- | 
    | --99999999--77777777--99999999----- | 
    | --99999999--77777777--77777777----- |…
  • PART  1
    
        F#                         C#           B
    E------------------------------------------------|
    A------------------------------------------------|
    D------------------------------------------------|
    G---11------------11-----------11-----------11---|
    B-------9---11--------9---11-------9---11--------|
    e------------------------------------------------|…
  • B                 A
    As I walk along I wonder what went wrong
             G                        F#
    With our love, a love that was so strong
    B                        A
    And as I still walk on I think of the things we've…
  • Part 1
    e|-----------------------------------------------------|
    B|-----------------------------------------------------|
    G|----------7------------------------------------------|x2
    D|--5-------7------7-----------------------------------|
    A|--5-------5(x8)--7-----------------------------------|
    E|--3(x8)----------5(x16)------------------------------|
    
    Part…
  • G|---------------------------------------------------------------------------|
    D|---------------------------------------------------------------------------|
    A|--6-6-5-5-9-9-5-5----------------------------------------------------------|
    E|---------------------------------------------------------------------------|
    
    G|---------------------------------------------------------------------------|
    D|---------------------------------------------------------------------------|
    A|------8>-------------------------------------------------------------------|
    E|---7>----------------------------------------------------------------------|…
  • e--7---7---7---7----8---8----5---5---------------------------|
    B----7---7---7---7----8---8----5---5-------------------------|
    G------------------------------------------------------------|
    D------------------------------------------------------------|
    A------------------------------------------------------------|
    E------------------------------------------------------------|
    
    B…
  • VERSE:
    e|--------------------------------
    B|--------------------------------
    G|--6-----------------------6-----
    D|--6-(pm)--4-------6-------6-(pm)
    A|--4-------4-(pm)--6-(pm)--4-----
    E|----------2-------4-------------…
  • Intro:(x4)
    e[-------------------------------------]
    B[-------------------------------------]
    G[--99999999---------------------------]
    D[--99999999-77777777-9999999999999999-]
    A[--77777777-77777777-9999999999999999-]
    E[-----------55555555-7777777777777777-]
    
    Verse:(x2)
    e[-----------------------------------------------------------------------]
    B[-----------------------------------------------------------------------]
    G[--6666666666666666---------------------------99999999------------------]
    D[--6666666666666666-9999999999999999-77777777-99999999-9999999999999999-]
    A[--4444444444444444-9999999999999999-77777777-77777777-9999999999999999-]
    E[-------------------7777777777777777-55555555----------7777777777777777-]
    
    Chorus:(x4)
    e[-------------------------------------]
    B[-------------------------------------]
    G[--99999999---------------------------]
    A[--99999999-77777777-9999999999999999-]
    D[--77777777-77777777-9999999999999999-]
    E[-----------55555555-7777777777777777-]
    
    Pre-verse:(x2)
    e[----------------------]
    B[----------------------]
    G[--6666----------------]
    D[--6666-9999-7777-9999-]
    A[--4444-9999-7777-7777-]
    E[-------7777-5555-7777-]
    
    Verse:(x2)
    Chorus:(x4)
    Pre-Verse:(x4)
    Intro:(x8…
  • RIFF 1
    e------------------------|
    B------------------------|
    G------------------------|
    D-7-7-7-7-7--5-5-5-5-5-5-|
    A-7-7-7-7-7--5-5-5-5-5-5-|
    E-5-5-5-5-5--3-3-3-3-3-3-|
    
    riff 2
    e------------|
    B------------|
    G------------|
    D-7--5--3--2-|
    A-7--5--3--2-|
    E-5--3--1--0-|
    
    PAUSE
    
    SOLO
    e---------------------------|
    B---------------------------|
    G-------------------------0-|
    D----------------------0h2--|
    A-2-2-2-2-2-2-2-2-2-2-2-----|
    E-0-0-0-0-0-0-0-0-0-0-0-----|
    
    RIFF…
  • LA              MI      
    she was cute but not too cute, 
            RE               LA
    an average girl in combat boots. 
            RE                                              LA   RE LA
    she photographed the punk rock…
  • intro
    e----------------------------------------------------------------------------|
    b----------------------------------------------------------------------------|
    g-4-9--4-9-4---8-6-4---------------------------------------------------------|
    d-4-9--4-9-4---8-6-4---------------------------------------------------------|
    a-2-7--2-7-2---6-4-2---------------------------------------------------------|
    E----------------------------------------------------------------------------|
    palm…
  • -------------------------
    -------------------------
    ---------------------10--
    --7-8-8-8-8-9---7----10--
    --7-8-8-8-8-9---7-----8--  x2
    --5-6-6-6-6-7---5--------
    
    
    --------------------
    --------------------
    ----------9--10--7--
    --7----7--9--10--7--
    --7----7--7---8--5--…
  • Intro :
    | -------------------- |
    | -------------------- |
    | --5555555555555555-- |
    | --5555555555555555-- |
    | --3333333333333333-- |
    | -------------------- |
    
    Verse : x2
    | ----------------------------------------------------------------------------…
  • Tuning: Normal
    
    Riff 1:
    E------------------------------------------------------------------------------------|
    B------------------------------------------------------------------------------------|
    G------------------------------------------------------------------------------------|
    D-88888888----------------------88888---------888888888----------------------8888888-|
    A-66666666-888-1010-66666-88888-66666---------666666666-888-1010-66666-88888-6666666-|
    E----------666-888--44444-66666-------66666-------------666-888--44444-66666---------|
    pm…
  • Guitar 1 (repeat 1x)
    -| ---------------------------------------------------------------------------------------|
    -| ---------------------------------------------------------------------------------------|
    -| ---------------------------------------------------------------------------------------|
    -|…
  • Verse (also bass part for bridge thing)
    e|--------------------|
    B|--------------------|
    G|---------9----------|
    D|----11---9---7---9--|
    A|----11---7---7---9--|
    E|----9--------5---7--|
    
    Chorus
    e|----------------------|
    B|----------------------|
    G|----------------------|
    D|----7--2--7--2--7--9--|
    A|----7--2--7--2--7--9--|
    E|----5--0--5--0--5--7--|…
  • Intro:
    [C Bb F C] x 2
    (enter drums)
    [C Bb F C] x 2
    
    [Verse]:
    C                         F              G
    Don't you see that people  will like you  for who you
    C                         F         G
    are  Cause life…
  • B              D    A     B  D  A
    I don't give a fuck about nicaragua
    B              D    A     B  D  A
    I don't give a shit about the President
    B              D    A     B  D  A
    I don't care about suburban white kids
    B…
  • [Intro]
    A            D                B                  E
      Cindy's on methadone, she's through with the syringe
    A            D                B          E (with slides from D#)
      Cindy's on methadone, she's off of…
  • chords used in this song
    
       D# A# Cm  G#
    
    e--6--6--8---4----------------------|
    B--8--6--8---4----------------------|
    G--8--7--8---5----------------------|
    D--8--8--10--6----------------------|
    A--6--8--10--6----------------------|
    E--X--6--8---4----------------------|
    
    intro
    
    D#…
  • Intro                                                             Verse 1,2
      Half-time feel                                                  Double-time feel
    | |---------------|--------------|--------------|---------------||------------------|
    |4|.--------------|--------------|--4--4--4--4--|--------------.||.-----------------|
    |4|.--4--4--4--4--|--------------|--------------|--4--4--4--4--.||.--4--4-4-4-4-4-4-|
    |…
  • Intro
    | --------- |
    | --------- |
    | --------- |
    | --6-6-6-- |
    | --6-6-6-- |
    | --4-4-4-- |
    
    | ---------------------------------------------------- |
    | ---------------------------------------------------- |
    | -------9------------9------------9------------11-11-…
  • Tuning: normal
    
    Riff 1:
    E----------------------------------------|
    B----------------------------------------|
    G----------------------------------------|
    D-2222222---------55555555-3333333-------|
    A-2222222-5555555-33333333-1111111-------|
    E-0000000-3333333-----------------…
  • intro/verse:
    e|------------------------|
    B|------------------------|
    G|--9--11-----------------|
    D|--9--11--11--9---(2x)---|
    A|--7--9---11--9----------|
    E|---------9---7----------|
    
    chorus:
    e|--------------------------------------------------------|
    B|--------------------------------------------------------|
    G|----------9-------------9-------------9-------------9---|
    D|--7--9----9--11--7--9---9--11--7--9---9--11--7--9---9---|
    A|--7--9----7--11--7--9---7--11--7--9---7--11--7--9---7---|
    E|--5--7-------9---5--7------9---5--7------9---5--7-------|
    
    verse:
    e|------------------------|
    B|------------------------|
    G|--9--11-----------------|
    D|--9--11--11--9---(2x)---|
    A|--7--9---11--9----------|
    E|---------9---7----------|
    
    chorus:
    e|--------------------------------------------------------|
    B|--------------------------------------------------------|
    G|----------9-------------9-------------9-------------9---|
    D|--7--9----9--11--7--9---9--11--7--9---9--11--7--9---9---|
    A|--7--9----7--11--7--9---7--11--7--9---7--11--7--9---7---|
    E|--5--7-------9---5--7------9---5--7------9---5--7-------|
    
    bridge:
    e|----------------------|
    B|----------------------|
    G|-----9--7-------------|
    D|--9--9--7--7---(8x)---|
    A|--9--7--5--7----------|
    E|--7--------5----------|
    
    verse:
    e|------------------------|
    B|------------------------|
    G|--9--11-----------------|
    D|--9--11--11--9---(2x)---|
    A|--7--9---11--9----------|
    E|---------9---7----------|
    
    chorus/outro:
    e|---------------------------------------------------------------|
    B|---------------------------------------------------------------|
    G|----------9-------------9-------------9-------------9----------|
    D|--7--9----9--11--7--9---9--11--7--9---9--11--7--9---9---(2x)---|
    A|--7--9----7--11--7--9---7--11--7--9---7--11--7--9---7----------|
    E|--5--7-------9---5--7------9---5--7------9---5--7--------------|
    
    Solo:…
  • A                  E             D
    Well i know that our love is for real
    
            A                          E               D
    But i thought you should know How i feel
    
                   A            E
    So you're not…
  • Intro: B D# G# F# x's 2
    
    
    B                               D#              G#     F#
      Baby talk, mixin' up emotions with the truth again.
    B                                   D#            G#   F#
      Baby talk, stickin'…
  • E - B - C - B - B - C - B
    
    E                           B    C    B    B    C    B
    Holy hardcore jesus christ. Knocking our religious life.
    E                           B    C    B    B    C    B
    Live by Crass, die by…
  • C - G - D - A - B - E - B  (x2)
    
    G - A - B (x2)
    
    
    A     /     B        E    B
    So you've heard we got the buzz
    A     /     B        E    B       G  A
    We'll be so famous with you behind us
    A     /     B        E…
  • Tuning: normal
    
    Riff 1:
    E----------------------------------------------|
    B----------------------------------------------|
    G----------------------------------------------|
    D-------------77777-------99999999-------99999-|
    A-77777-55555-55555-77777-77777777-77777-77777-|
    E-55555-33333-------55555----------55555-------|
    
    Riff…
  • Lead riff A
    E---3--3-3-3-2-0-0--3--3-3-3-2-0-0--3--3-3--3--3-3----------|
    B--------------------------------------------------3--3-3-3-|
    G-----------------------------------------------------------|
    D-----------------------------------------------------------|
    A-----------------------------------------------------------|
    E-----------------------------------------------------------|
    
    [C…
  • Intro:
    p.m.
    e-------------     e---|
    b-------------     b---|
    g-------------     g-4-|
    d---1-1-1-2-4-     d-4-|
    a-2-----------     a-2-|
    E------------- x4  E---| x16
    
    Verse:
    p.m.------------------------------|
    e---------------------------------|
    b---------------------------------|
    g-4-4-4-4-------------------------|
    d-4-4-4-4-4-4-4-4-6-6-6-6-2-2-2-2-|
    a-2-2-2-2-4-4-4-4-6-6-6-6-2-2-2-2-|
    E---------2-2-2-2-4-4-4-4-O-O-O-O-|…
  • --------------         --------     
    --------------         -------- 
    --9--------9--         -------- 
    --9--9--7--9--   x2    --7--9--    x1
    --7--9--7--7--         --7--9-- 
    -----7--5-----         --5--7--
    
    
    ---------------------…
  • -------------------      ------------------      --------------------
    -------------------      ------------------      --------------------
    -------------------      --7---------------      --9--7--9--7--9--7--
    --6-7-6-7-6-7-6-7--…
  • Intro/Outro: F# G F# G F# G 
    e|---------------------|
    B|---------------------|
    G|---------------------|
    D|-4/5-4/5-4/5-5-5-5-5-|
    A|-4/5-4/5-4/5-5-5-5-5-|
    E|-2/3-2/3-2/3-3-3-3-3-|
    
    Verse: G D C
    e|-------------------------------------------|
    B|-------------------------------------------|
    G|---------------7-7-7-7-7-7-7-5-5-5-5-5-5-5-|
    D|-5-5-5-5-5-5-5-7-7-7-7-7-7-7-5-5-5-5-5-5-5-|
    A|-5-5-5-5-5-5-5-5-5-5-5-5-5-5-3-3-3-3-3-3-3-|
    E|-3-3-3-3-3-3-3-----------------------------|
    
    Chorus:…
  • [Intro chord: F#]
    
    F#                                                        B
       If you've ever questioned beliefs that you hold you're not alone
        F#                                          B
    But you oughta realize…
  • D# - D - F# - D
    
    
    D#         D              F#         D
    Mad at the paper boy that little nerd
    D#         D              F#         D
    Can't throw a paper straight, the spastic twerp
    D#         D              F#…
  • rythm guitar
      E:-------------------|
      B:-------------------|
    A)G:-------------------|
      D:77777-6-5-4--------|
      A:77777-6-5-4--------|
      E:55555-4-3-2--------|
    
    
      E:---------------------------------------------------------------------|…
  • 1. E                H                D          A        E
    e|-----------------------------------------------------------------------|
    B|-----------------------------------------------------------------------|
    G|-9-9-9-9-9-9-9-9-------------------7--7--7-7-----------9-9-9-9-9-9-9-9-|
    D|-9-9-9-9-9-9-9-9--9-9-9-9-9-9-9-9--7--7--7-7--7-7-7-7--9-9-9-9-9-9-9-9-|
    A|-7-7-7-7-7-7-7-7--9-9-9-9-9-9-9-9--5--5--5-5--7-7-7-7--7-7-7-7-7-7-7-7-|
    E|------------------7-7-7-7-7-7-7-7-------------5-5-5-5------------------|
    
    2.…
  • Intro.
    
    G----------------------------------------
    D----------------------------------------
    A---2------------------------------------ x 1
    E--------4----0--------------------------
    
    Verse 1
    
    G--------------------------------------
    D-------4--1--22--1-----22--1----------
    A---22---------------2---------2-------…
  • tuning: normal
    
    Riff 1:
    E-------------------------------------|
    B-------------------------------------|
    G-------------------------------------|
    D----------------999999-777-555-------|
    A-777777-101010--777777-555-333-------|
    E-555555-88888-----------------…
  • [G]Lucky you, [C]lucky me
    You're a [D]threat to our [D]community
    [G]Mom don't like the [C]way you look
    You're [D]straight out of a [C]comic book
    And it's a [C]teenage freak[D]show
    It's a [C]teenage freak[D]show
    It's…
  • VERSE
       Well, she's a thrift store girl...
    e|------------------------------------|
    B|------------------------------------|
    G|-111111111--------------------------|
    D|-111111111-999999999-111111111------|(x2)
    A|-999999999-999999999-111111111------|
    E|-----------777777777-999999999------|…
  • INTRO
    G]-----------------]
    D]-----------------]
    A]---------5-7-5---]
    E]-5-5-4-2-------5-]
    
    VERSE
    G]----------------------]
    D]----------------------]
    A]-----------5>-7>-5----]
    E]-5>-5-4-2>---------5>-]
    
    PRE-CHRUS
    G]---------------------]
    D]---------------------]
    A]-2>---------2>-------]
    E]----2>-5>-0----2>-5>-]
    
    CHORUSx2
    G]----------------------------]
    D]----------------------------]
    A]----5>----5>----7>----5>-7>-]
    E]-5>----5>----5>----5>-------]
    VERSE
    PRE-CHORUS
    CHORUS
    
    HAVE…
  • INTROx4
    g]-------]
    d]-------]
    a]-------]
    e]-5>-3>-]
    
    VERSEx2
    g]----------------]
    d]----------------]
    a]-------5>-------]
    e]-5>-3>----3>-5>-]
    
    PRE-CHORUS
    g]----------------------------------------]
    d]----------------------------------------]
    a]----5>-------5>-------5>----5>----5>----]
    e]-3>----5>-3>----5>-3>----5>----3>----5>-]
    
    CHORUSx4
    g]----------]
    d]----------]
    a]-5>-------]
    e]----3>-5>-]
    
    INTROx4
    VERSE
    PRE-CHORUS
    CHORUS
    
    PHASERS…
  • CHORDS
    
        G5  B5  Em  C5  
    
    |-------------------|
    |-------------------|
    |-------4-------5---|
    |---5---4---2---5---|
    |---5---2---2---3---|
    |---3-------0-------|
    
    RIFF 1
    
    |----------------------------------|
    |----------------------------------|
    |----------44444444--------5555555-|
    |--5555555544444444222222225555555-|
    |--5555555522222222222222223333333-|
    |--33333333--------00000000--------|
    
    RIFF…
  • [ A / D / F# / E / D ]
    
    A      D              F#               E                 D
    D.I.Y. Why because we hate you and the dumb look on your face
    A      D                F#             E            D
    D.I.Y. Why because…
  • Introduction and between verses and
    choruses when no one sings:
    E--------------------------------|
    B--------------------------------|
    G---3---5------------------------|    play this part 3 times,
    D---3---5---7---5---5---5---5----|…
  • 1st Verse
       4/4
        Gtr I
        Q  Q  E E E E   Q  Q  E E E E   Q  Q  Q  Q    E E Q  E E Q
    ||----------------|---------------|-------------|---------------|
    ||o---------------|---------------|-------------|---------------|
    ||o-7--7--7-7-7-7-|-7--7--7-7-7-7-|-5--5--------|---------------|
    ||----------------|---------------|-------5--5--|-5-5-5--5-5-5--|…
  • C F C G
    
    C                              F
    you think you've got something over
    C                     G
    some kinda thing over me
    C                                         F                  
    well there's gonna come…
  • Guitar I-Jughead
    Guitar II-Ben Weasel
    
    Legend:
    x-mute
    Pm-palm mute
    h-hammer on
    p-pull off
    ~-let ring
    ()-ghost note
    b-bend
    r-begin to release bend
    
    Note:This is the complete version of the song including
    a rough…
  • Verse
    G:---------------------------------------------------------------
    D:---------------------------------------------------------------
    A:-7>----11>-----------------------------------------------------
    E:----7>-----11>-------------------------------------------------
    
    Chorus
    G:---------------------------------------------------------------
    D:---------------------------------------------------------------
    A:-7>----4>-11>--------------------------------------------------
    E:----7>---------------------------------------------------------
    
    End
    G:---------------------------------------------------------------
    D:---------------------------------------------------------------
    A:-------7>------------------------------------------------------
    E:-9>-5>----7>---------------------------------------------------…
  • VERSEx4
    G]----------------------]
    D]----------------------]
    A]----8>----6>----8>-6>-]
    E]-6>----6>----6>-------]
    
    CHORUSx3
    G]----------]
    D]----------]
    A]-------6>-]
    E]-6>-8>----]
    
    VERSE
    CHORUS
    
    THE BOTTLED EMPTIED.............
    G]----------------------------]
    D]----------------------------]
    A]----8>-6>----8>----8>----6>-]
    E]-6>-------6>----6>----6>----]
    
    I…
  • A
    You've gotta have love in your heart
    D                                  A
    And you've gotta have pain in your life 
    A
    And you've gotta have some vision and 
    D                              E
    Confusion for some peace…
  • Verse/ Intro:
    -----------------------------------------------------------||
    -----------------------------------------------------------||.
    ---------------4-4-4-4-4-4-4---------------5-5-5-5-5-5-5---||
    -5-5-5-5-5-5-5-4-4-4-4-4-4-4-2-2-2-2-2-2-2-5-5-5-5-5-5-5---||
    -5-5-5-5-5-5-5-2-2-2-2-2-2-2-2-2-2-2-2-2-2-3-3-3-3-3-3-3---||.
    -3-3-3-3-3-3-3---------------0-0-0-0-0-0-0-----------------||
    
    Solo…
  • Tuning: Normal
    
    Riff 1:
    E-------------------------------------|
    B-------------------------------------|
    G-------------------------------------|
    D-----999-----777-----555-22222-------|
    A-999-777-777-555-555-333-22222-------|
    E-777-----555-----333-----00000…
  • Tuning-Standard (E A D G B E)
    
    *LEGEND*
    
    /-slide down
    []-harmonic
    fdbk-feedback
    
    Bass and drums...
    
    0:04
    
    Gtr. 1
    
           Fdbk.
       |------------|
    e------------------|
    b------------------|
    g------------------|
    D------------------|
    A------------------|
    E---[5]--[5]-[5]---|
    
    0:06
    
    Intro:
    
    Gtr.…
  • Part 1
        D5      F5       D#5                x4
    e------------------------------------|
    B------------------------------------|
    G---7-7-7-7-11111111-8-8-8-8-8-8-8-8-|
    D---7-7-7-7-11111111-8-8-8-8-8-8-8-8-|
    A---5-5-5-5-8-8-8-8--6-6-6-6-6-6-6-6-|
    E------------------------------------|
    
    Part…
  • guitar intro
    |----------------------------|
    |----------------------------|              bass
    |----------------5-------7---|----------------------------------------|
    |-------5------5---5---7---7-|----------------------------------------|…
  • Intro/Bridge:
    
    e------------------------------------------------------|
    b------------------------------------------------------|
    g---12-12-12-12-12-12-9-12-12-12-12-12-9-12-12-12-12---|
    D------------------------------------------------------|
    A------------------------------------------------------|
    E------------------------------------------------------|
    
    e-------------------------------|
    b-------------------------------|
    g---12-12-12-12-12-12-7-7-7-7---|
    D-------------------------------|(x2)
    A-------------------------------|
    E-------------------------------|…
  • [ C# / F# ] x2
    
    [ C# / F# ] (with lead) x4
    
    [Verse]:
    C#                    F#
       He had a big mouth
              C#                F#
    He didn't know when to stop
              C#                   F#
    He said, "Maybe we'll…
  • Tuning: Normal
    
    Riff 1:
    E--------------------------------|
    B--------------------------------|
    G--------------------------------|
    D--------------------------------|
    A----77777777-44444444-----------|
    E----55555555-22222222…
  • Intro/chorus
    e--------------------------------------------------------|
    b--------------------------------------------------------|
    g-9-9-9-9-9-9--7-7-7-7-7-7-------------------------------|
    d-9-9-9-9-9-9--7-7-7-7-7-7--7-7-7-7-7-7-7-7-7-7-7-7------|
    a-7-7-7-7-7-7--5-5-5-5-5-5--7-7-7-7-7-7-7-7-7-7-7-7------|
    E---------------------------5-5-5-5-5-5-5-5-5-5-5-5------|
    figure…
  • Intro
    --------------------------------------------------------------|
    --------------------------------------------------------------|
    --------------------------------4>5-5-5-5-5-5-5-5-5-5-5-5-5-5-|  2X
    --7>8-8-8-8-8-8--2>3-3-3-3-3-3--4>5-5-5-5-5-5-5-5-5-5-5-5-5-5-|
    --7>8-8-8-8-8-8--2>3-3-3-3-3-3--2>3-3-3-3-3-3-3-3…
  • intro
    e|---------------------------------------------------------------------------|
    B|---------------------------------------6x----------------------------------|
    G|--------10101010-----------------------------------------------------------|
    D|--7777--10101010-10101010-12121212-----------------------------------------|
    A|--7777---8-8-8-8-10101010-12121212-----------------------------------------|
    E|--5555------------8-8-8-8-10101010-----------------------------------------|
    
    chorus
    e|---------------------------------------------------------------------------|
    B|---------------------4x----------------------------------------------------|
    G|---------------------------------------------------------------------------|
    D|--7777-X-654---------------------------------------------------------------|
    A|--7777-X-654---------------------------------------------------------------|
    E|--5555-X-432---------------------------------------------------------------|
    
    Verse…
  • INTRO
    e|------------------------------------------------------------------------------|
    B|------------------------------------------------------------------------------|
    G|---5-5-5-5-5-5-5-5------------------------------------------------------------|
    D|---5-5-5-5-5-5-5-5--3-3-3-3--5-5-5-5------------------------------------------|
    A|---3-3-3-3-3-3-3-3--3-3-3-3--5-5-5-5------------------------------------------|
    E|--------------------1-1-1-1--3-3-3-3------------------------------------------|…
  • 4/4
      Gtr I
      Wx4            Q  E E E E E E   Q  E E E E E E
    |------------||-----------------|----------------|
    |------------||o----------------|----------------|
    |------------||o-5--5-5-5-5-5-5-|----------------|
    |------------||-----------------|-5--5-5-5-5-5-5-|…
  • Intro :
    | --------------------------- |
    | --------------------------- |
    | ----2h-3--2-----2h-3---2--- |
    | --3-----------3------------ |
    | --------------------------- |
    | --------------------------- |
    
    Riff 1 :
    |…
  • Tuning - Standard (E A D g b e)
    
    0:00
    
    Intro/Verse:
    
    Gtr. 1 w/ distortion
    
              A5          D5    E5     *   A5   D5       A5
                                       *
                                  
    e----------------------------------|------------------------|
    b----------------------------------|------------------------|
    g-------------------7-7-7-9--9-9---|-------7-7-7------------|
    D---7-7-7-7-7-7-7-7-7-7-7-9--9-9---|---7-7-7-7-7-7--7-7-7---|
    A---7-7-7-7-7-7-7-7-5-5-5-7--7-7---|---7-7-5-5-5-7--7-7-7---|
    E---5-5-5-5-5-5-5-5----------------|---5-5-------5--5-5-5---|
    
    *…
  • G  C  D
    
      G                        C               D
    I don't wanna call you and take you to the show
            G                                C              D
    I don't wanna go on dates with you, and write you sappy…
  • G  A  (x4)    A#  C
    
    G  A  (x8)
    
    G      A      G      A
    Another cop another gun
    G      A      G      A
    Another way to end my fun
    G      A      G      A
    Another fucking power game
    G      A      G      A
    Hate in…
  • intro- first guitar
    e ---9-8-------8-------------|
    b -------9---9---------------|
    g ---------8-----------------|          20x
    d ---------------------------|
    a ---------------------------|
    e ---------------------------|
    
    intro-…
  • intro...
    
    e,d,g,f, e (power chords except for the last E, which is x-2-2-1-x-x)
    
    verse 1
    e        d             g             f            e(pm)
    i cant stand you right wing phonies
    e        d          g…
  • Pm       Pm
    E|--0—0—3—2-
    B|--0—1—0—3-
    G|--1—2—0—2-
    D|--2—3—0—0-
    A|--2—0—2------
    E|--0--------3-------
    
    CHORUS
    E|--0—3—2—0—0—3—2—0--
    B|--0—0—3—1—0—0—3—1--
    G|--1—0—2—0—1—0—2—0--
    D|--2—0—0—2—2—0—0—2--
    A|--2—2-------3---2----2------3--
    E|--0—3------------0----3---------
    
    2ND…
  • CHORDS USED:
    
          D#      A#    G#
    1-
    2-
    3-    8
    4-    8       8      6
    5-    6       8      6
    6-             6      4
    
    
    Verse:
    
    D#                                                        A#           D#
    I walk by your…
  • *: palm mute
    
    Riff 1:  ---------------         Riff 2:  --------------|
             ---------------                  --------------|
             ------------6--                  -----------6--|
             --6-6*------6--…
  • Verse:
    ---------------------
    -------3-------------
    3-3-3-3--3-1-1-1-1-3-    keep repeating this
    ---------------------
    
    Chorus:
    
    ---------------------
    3-3-3-3-3-3-3-3-3-0-0-0-0--
    -------------------------3
    ---------------------------0/7…
  • intro!
    
    G(really fast)
    
    fred--------------   is .
    
    then do the following
    
    the whole song is just this riff, with some variations...
    
    
    E------------------------------------------------------------------------------|
    --------------------------------------------B----------------------------------|
    -------------------------------------------------------------------------------|
    ----------G----0------0------3-------0-----------------------------------------|
    ---------------------------------------------------D---------------------------|
    -------3---------3------2------3-----------------------------------------------|
    -------------A-----------------------------------------------------------------|
    ---------------------------------------------------------E---------------------|
    -------------------------------------------------------------------------------|
    -------------------------------------------------------------------------------|
    
    JUST…
  • CHORDS USED:
    
          C#       G#    F#      B
    1-
    2-
    3-    6                          4
    4-    6         6     4         4
    5-    4         6     4         2
    6-               4     2
    
    
    Intro: C#, G#, C#, G#, F#, C#, G#, C#,…
  • D                                 G
    you dopes are all the same and that's why i'm so ashamed
            E                                     G           A
    to be a part of what might be called the punk rock community…
  • Verse:
        A        F#   A    D                   E                A
    e||------------------------------------|------------------------------|
    B||------------------------------------|------------------------------|
    G||--------------------7-7-7-7-7-7-7-7-|---9-9-9-9-9-9-9-9--7---------|
    D||-7-7-7-7--4-4--7-7--7-7-7-7-7-7-7-7-|x4-9-9-9-9-9-9-9-9--7---------|
    A||-7-7-7-7--4-4--7-7--5-5-5-5-5-5-5-5-|---7-7-7-7-7-7-7-7--5---------|
    E||-5-5-5-5--2-2--5-5------------------|------------------------------|
    
    Refrain:…
Наверх