Аккорды Сектор газа - Укус вампира

Добавлено: @romashka
Дата добавления: 16 Марта 2013г.
Рейтинг:
5.0
Просмотров: 1 090
Транспонировать - +
Riff a

E|-8--7--5--7-|
B|------------|
G|------------|
D|------------|
A|------------|
E|------------|

Riff a1

  Am  G  F  G
E|-8--7--5--7-|
B|------------|
G|------------|
D|------------|
A|------------|
E|------------|

Riff b

   Am      F         C              G
E|-8--10--8--7---------12-12-13-12--10--8--10-|
B|--------------10--8-------------------------|
G|--------------------------------------------|
D|--------------------------------------------|
A|--------------------------------------------|
E|--------------------------------------------|

Riff c

   Am          C   Am
E|-8------------8-----|
B|-----10--10------10-|
G|--------------------|
D|--------------------|
A|--------------------|
E|--------------------|

Riff c1

   Am
E|----|
B|-10-|
G|----|
D|----|
A|----|
E|----|

Вступление:

riff a (4 раза)
riff b (4 раза)
riff c

      Am                  F
Не пугайся, дорогая, у меня на шее кровь.
         C                     Am
Что со мною я не знаю, ты мне воду приготовь.
       Am                     F
Ночью на лесном погосте из могилы на меня
        C                    G
Что-то кинулось, и шею прокусила та херня.
       Dm                                    Am C Am C Am C Am C
Я не знаю, что случилось, но трясет меня, и жарко в груди.
       Dm                         F                        C  E
Я не знаю, что случилось, но мне кажется, что смерть впереди.
        Am
Ведь меня укусил вампир.
                     Dm
Ведь меня укусил вампир.
        Am
Ведь меня укусил вампир.
                     E
Ведь меня укусил вампир.

Riff b (4 раза)
Riff c
Я принес чеснок и свечи, положи их на стол,
Я принес святую воду и осиновый кол.
Твои слезы не помогут, не дрожи, кол возьми.
Если я приду другим, ты им сердце мне проткни!

Я не знаю, что случилось, но трясет меня, и жарко в груди.
Я не знаю, что случилось, но мне кажется, что смерть впереди.
Ведь меня укусил вампир.
Ведь меня укусил вампир.
Ведь меня укусил вампир.
Ведь меня укусил вампир.

Сейчас меня тошнит немного, нужен мне гемоглобин.
Ты поставь на стол вино красное, как рубин.
Остается лишь напиться, я пока еще живой.
Ломит у меня в зубах и в ушах какой-то вой!

Я не знаю, что случилось, но трясет меня, и жарко в груди.
Я не знаю, что случилось, но мне кажется, что смерть впереди.
Ведь меня укусил вампир.
Ведь меня укусил вампир.
Ведь меня укусил вампир.
Ведь меня укусил вампир.

Riff b (4 раза)
Riff c1
comments powered by Disqus
Наверх