Аккорды «Serj Tankian»

Serj Tankian
Серж Танкян родился в Ливане 21 августа 1967 года, где и провел первые годы жизни, пока не переехал с родителями и братом в Лос-Анджелес, США. С 1993 по 1995 год Серж совместно с Дароном Малакяном играет в группе Soil. В 1995 году они совместно с Шаваршем Одаджяном и Энди Хачатуряном, которого вскоре заменил Джон Долмаян, основывают группу System Of A Down, благодаря которой становятся известными на весь мир. После начала "отпуска" группы в 2006 году каждый из участников решает интенсивно… Читать полностью... Серж Танкян родился в Ливане 21 августа 1967 года, где и провел первые годы жизни, пока не переехал с родителями и братом в Лос-Анджелес, США. С 1993 по 1995 год Серж совместно с Дароном Малакяном играет в группе Soil. В 1995 году они совместно с Шаваршем Одаджяном и Энди Хачатуряном, которого вскоре заменил Джон Долмаян, основывают группу System Of A Down, благодаря которой становятся известными на весь мир. После начала "отпуска" группы в 2006 году каждый из участников решает интенсивно заняться сольным творчеством, а в октябре 2007 года выходит первый сольный альбом Сержа - "Elect The Dead". В поддержку альбома Серж со своей группой The Flying Cunts Of Chaos отправляется в тур по США и Европе, в ходе которого дает 3 концерта в России. По окончании тура Серж сделал заявление о том, что планирует в марте 2009 года дать концерт с полноценным симфоническим оркестром, а группа "The F.C.C.", оказывавшая поддержку на протяжении всего тура, будет в будущем выпускать свой собственный альбом. В начале 2010 года становится известно, что запись концерта с Оклендским Симфоническим Оркестром будет выпущена на DVD под названием "Elect The Dead Symphony", а также - что Серж заканчивает работу над вторым сольным альбомом и планирует дать несколько концертов с симфоническими оркестрами по всему миру, в ходе которых также будет представлен новый материал. В ходе этого тура Серж снова дает концерт в Москве, на этот раз с помощью Симфонического Оркестра "Глобалис", а в августе 2010 года начинает тур в поддержку нового альбома "Imperfect Harmonies", в ходе которого впервые дает концерт на своей исторической родине - Армении. Скрыть...
Популярные аккорды Serj Tankian:
алфавиту | просмотрам | случайно
  • Capo on 3:
    
    Am
    Everybody knows, 
    Dm
    Everybody knows, 
    F            E            Am
    That you cradle the sun, sun 
    Dm
    Living in remorse, 
    F       E 
    Sky is over, 
    
    G          Am
    Don't you want to hold me baby,…
  • Intro: Fm Eb Bbm }x2
    
    Fm    Eb     Bbm   C     }x4
    Lalalalalalalala lie lie lie...
    
    Verse:
      Fm     Eb   Bbm    C    }x4
    My baby, my baby, let me know...
    
    Chorus:
    C#              C
    Take my hand and let's end it…
  • Tuning: drop В
    
    This is the whole song separated in its different parts.
    There's the list of the part to play in order :
    
       +---------------+
       | Parts Order : |
       +---------------+
       |   Part А      |
       |…
  • Em        C
    The love that you bring
      D      Bm
    You bring me alone
      Em         C
    The pain that you give
     D      Bm 
    Gives me a home
         Em          C
    Do you wanna stay by my side
         D             Bm 
    Do you…
  • (distorted)
    D||--------------------------------------------------||
    A||------------------------------------------------||
    F||--------------------------------------------------||
    C||--3-3-5-6x8--8-8-10-11x4--6-6-8-10x2--5-5-7-8x2-||
    G||--------------------------------------------------||
    C||--------------------------------------------------||…
  • Distortion Throughout
    
    There are really only 3 sections to this piece:
    
    A Section:
    0:00
    e------------------------------------------------------------|
    B------------------------------------------------------------|
    G--4--4--4----4--4--4----4--4--4----4--4--2--2---------------|
    D--4--4--4----4--4--4----4--4--4----4--4--2--2----5--5--5----|
    A--2--2--2----2--2--2----2--2--2----2--2--0--0----5--5--5----|
    E-------------------------------------------------3--3--3----|
    
    e------------------------------------------------------------|
    B------------------------------------------------------------|
    G------------------------------------------------------------|
    D--5--5--5--5----2--2--2--2----5--5--5--5--------------------|
    A--5--5--5--5----2--2--2--2----5--5--5--5--------------------|
    E--3--3--3--3----0--0--0--0----3--3--3--3--------------------|…
  • GTR I : EADGBE (standard tuning)
    GTR II : CGCFAD (Drop C)
    GTR III: CGCFAD (Drop C)
    
    timing: 12/8
    120 bpm
    
    Riff А (GTR I) - acoustic
       E  E  E E  E  E E  E  E E  E  E   E  E E E  E E E  E E E  E E  
    |----------------------------------------------|------------------------------------------|
    |----------------------------------------------|------------------------------------------|
    |----------------------------------------------|------------------------------------------|
    |---------10---------10---------10---------10--|---------9---------9---------9---------9--|
    |-----12---------12---------12---------12------|-----10--------10--------10--------10-----|
    |--0----------0----------0----------0----------|--0---------0---------0---------0---------|…
  • E|-------------------------------------------------------------------------|
    B|-------------------------------------------------------------------------|
    G|----------------------------------------------14-------14-------14-------|
    D|-------12-------12-------12-------12-------12-------12-------12-------12-|
    A|----12-------12-------12-------12-------12-------12-------12-------12----|
    D|-12-------12-------12-------12-------12----------------------------------|
    
    E|-------------------------------------------------------------------------|
    B|-------------------------------------------------------------------------|
    G|-------------------------------------------------------------------------|
    D|-3-3-3-3-3-3-3-3-3-3-5-3-2-2-2-2-2-2-8-8-8-8-8-8-------------------------|
    A|-3-3-3-3-3-3-3-3-3-3-5-3-2-2-2-2-2-2-8-8-8-8-8-8-------------------------|
    D|-3-3-3-3-3-3-3-3-3-3-5-3-2-2-2-2-2-2-8-8-8-8-8-8-------------------------|…
  • Tuning:Drop D 
    
    Intro and pre chorus:
     0:11
    e|------------------------------------------------------------------------|
    B|------------------------------------------------------------------------|
    G|------------------------------------------------------------------------|
    D|-0----5----0----7----5----0---------3---------5----3--------------------|
    A|-------------------------------3---------3--------------3---------------|
    D|------------------------------------------------------------------------|…
  • Tuning: Standart (EADGBe)
    
    INTRO (humming starts on the C):
    Em |Em | C | B
    
    VERSE:
    Em
    You came to me within a dream
                     C
    Not everyone is who they seem,
                    B
    All these words we cant redeem,
    Em
    Like…
  • Intro/Main Riff
    D|----------------------------------------|
    A|----------------------------------------|
    F|----------------------------------------|
    C|--------------------------------------5-|
    G|-----6p5--------6p5--------6p5--------3-|
    C|-0-0-----00-0-0-----00-0-0-----00-0-0---|
    
    D|-------------------------------------|
    A|-------------------------------------|
    F|-------------------------------------|
    C|---------------------------------5-6-|
    G|-----6p5--------6p5--------6p5---5-6-|
    C|-0-0-----00-0-0-----00-0-0-----0-5-6-|
    
    Chorus
    D|-----------------------------------------|
    A|-----------------------------------------|
    F|-----------------------------------------|
    C|-7-7-7-7-10-10-10-10-5-5-5-5-12-12-12-12-|
    G|-5-5-5-5-8--8--8--8--3-3-3-3-10-10-10-10-|
    C|-----------------------------------------|
    
    D|-----------------------------------------|
    A|-----------------------------------------|
    F|-----------------------------------------|
    C|-7-7-7-7-10-10-10-10-5-5-5-5-10-10-12-12-|
    G|-5-5-5-5-8--8--8--8--3-3-3-3-8--8--10-10-|
    C|-----------------------------------------|
    
    Verse
    D|---------------------------|
    A|---------------------------|
    F|---------------------------|
    C|---------------------------|
    G|---------------------------|
    C|-0-0-0-0-0-0-0-0-0-0-5-0-3-|
    
    "Fuck,…
  • Tuning: Standard
    
    Main riff:
    e|---------------------------------------------------------------------------|
    B|---------------------------------------------------------------------------|
    G|---------------------------------------------------------------------------|
    D|--4------------------------------------------------------------------------|
    A|----3----3p1-4p1-----------------------------------------------------------|
    E|1----------------4p3-------------------------------------------------------|
    
    Chorus:
    e|---------------------------------------------------------------------------|
    B|---------------------------------------------------------------------------|
    G|10----6--------8----5--------6----3--------5----3----5----6----5----3------|
    D|10----6--------8----5--------6----3--------5----3----5----6----5----3------|
    A|10----4--------6----3--------4----1--------3----1----3----4----3----1------|
    E|---------------------------------------------------------------------------|…
  • Em - riff:
    e|-----------------------------|
    B|---------0-------------------|
    G|-------0---0-------0-----0---|
    D|-----2-------2---0-----0-----| x2 
    A|-----------------------------|
    E|---0-----------2-----3-------|
    
    Intro:…
  • Dm   (hold)   Dm
    Why don't you Go photograph
    Everything that ever passed in time
    Indigenous traces, tribal chiefs,
    Vanishing hereditary lines,
    Poets gone wild on the muse
    Prophets all destroying the Tao,
    
     Bb…
  • Cm/G         C#/Ab   Cm/G
    Arms are raised above the sky
       Gm7   Fm7add13 Cm/G
    But all I want is me
    
    Cm/G         C#/Ab   Cm/G
    You are there beside the night,
       Gm7   Fm7add13 Cm/G
    But all I want is me
    Gm7   Fm7add13…
  • DROP C TUNING!
    
    -------------------|-------------|-----------------|---------------|
    -------------------|-------------|-----------------|---------------|
    -------------------|-------------|-----------------|---------------|
    -------------------|-------------|-----1-3-1-------|----1-3-1-----0|
    -------------------|-------------|-1-3-------3-1---|-1-3------3-1-0|
    -1-3-1-3-1-3-1-3-1-3-1-3-1-3-1-3-|---------------3-|--------------0|
    
    -------------------|-------------------|
    -------------------|-------------------|
    -------------------|-------------------|
    -2--3--0-----------|-2--3--0-----------|
    -2--3--0-----------|-2--3--0-----------|
    -2--3--0--------12|-2--3--0--------12|
    "...on…
  • standard tuning
    
    |-----------0------------------------------------|
    |----------------------------------0-------------|
    |--------2-----2-----2----------2-----2-----2----|
    |-----2-----------2----------1-----------1-------|
    |--0----------------------2----------------------|
    |------------------------------------------------|
    
    |------------------------------------------------|
    |-----------0-----------------------0------------|
    |------------------------------------------------|
    |--------2-----2-----2-----------0-----0-----0---|
    |-----2-----------2-----------2-----------2------|
    |--0-----------------------3---------------------|
    
    |-------------------------------------2----------|
    |-----------1----------------------0-------------|
    |--------2-----2-----2----------2-----------2----|
    |-----2-----------2----------1-----------1-------|
    |--0----------------------2----------------------|
    |------------------------------------------------|
    
    |--------------0---------------------------------|
    |------------------------------------------------|
    |-----------0-----0------------------------------|
    |--------2-----------2---------------------------|
    |-----2--------------------2---------------------|
    |--0--------------------0------------------------|
    
    Piano…
  • Capo 3
     
    Intro: 
    ----------------------------------------------------| 
    ----------------------------------------------------| 
    ------------------------------0-0-0-0---------------| 
    ---0-0-0-0------------------------------------------|…
  • Verse: 
    Em     Am F   Em       Am F
    Are we a fantasy? swimming in theocracy
    Em   Am     F       Am      F
    We are far from holy the wholeness of one
    Am       B
    Repeat after me
    
    Em       Am   F
    We lost the key of…
  • Intro: Em   B7 }x2
     
    Verse 1: 
     Em              Am  G           D
    Yes voch antum em, voch el taragir 
     Am        D    Am   D  Em
    Unem hangrvan, unem otevan 
     Em         Am   G           D
    Azat Hayreniq, yerjanik…
  • this is kind of an intro besides the crazy piano mashing. 
    
    e|-------------------------------------------------------------|
    b|-------------------------------------------------------------|
    g|-------------------------------------------------------------|
    D|-------------------------------------------------------------|
    A|----5-7-8---5-7-8---5h7-8-5h7-8---5-7-8-7---5-7-8---5-7-8-9--|
    D|--0-------0-------0-------------0---------0-------0----------|
    
    e|-------------------------------------------------------------|
    b|-------------------------------------------------------------|
    g|-------------------5--3--0-2-0-------------------------------|
    D|-------------------------------3-2-----------777-55-777------|
    A|----5-7-8---5-7-8----------------------------555-33-777------|
    D|--0-------0-----------5----3--------0--0--0--555-33-777------|
    
    e|-------------------------------------------------------------|
    b|-------------------------------------------------------------|
    g|-----------------5--3--0-2-0---------------------------------|
    D|-----------------------------3-2-----------777-55-777--------|
    A|----------5h7-8----------------------------555-33-777--------|
    D|--0--0--0-----------5-------------0--0--0--555-33-777--------|
    
    e|-------------------------------------------------------------|
    b|-------------------------------------------------------------|
    g|-------------------------------------------------------------|
    D|--0--0--0--777-55-777----------------------------------------|
    A|--0--0--0--555-33-777----------------------------------------|
    D|--0--0--0--555-33-777---0------------------------------------|…
  • Guitar part 1: 
    e|-0---------0---------0--------0---------3-----------------0--------0---|
    B|-0---------0---------0--------0---------3-----------------0--------0---|
    G|-0---------8---------5--------4---------4--------4--------0--------0---|
    D|-9---------8---------5--------4---------5--------5--------2--------4---|
    A|-7---------7---------3--------2---------5--------5--------2--------2---|
    E|-0---------0---------0--------0---------3--------3--------0--------0---|…
  • Em          B 
    I don't deserve you.
    Em         B7 
    Why can't you see?
    Em         B 
    I will desert you.
    Em         B7 
    Why don't you leave?
       Am       B 
    But you put your faith 
      Am       B7  
    In me one last…
  • Verse:
    Dm
    We follow the ever-falling rain
    Electrons protons fight again
    Bb   A
    So, we run
    Dm
    We follow the ever-rising sun
    With feelings of all becoming one
    Bb   A
    Then, we fly
    Dm
    We fly in our dreams ever so…
  • Припев-1 (2 раза):
       Fm                 Ab                    A#m
    Spare me the night trampled upon by submission
        Fm                           Ab
    А mask within one's own inhibition
                    A#m
    Where the…
  • Intro: (let ring)
    |-----------------------------------------------------|
    |----10-----10-----10-----10------8----8----8----8----|
    |------10-10--10-10--10-10--10-10--9-9--9-9--9-9--9-9-|
    |-----------------------------------------------------|
    |-----------------------------------------------------|
    |-----------------------------------------------------|…
  • Tuning: Drop D
    
    Intro:
    e|-----------------------------------------------|
    B|-----------------------------------------------|
    G|-----------------------------------------------|   X4
    D|-----------------------------------------------|
    A|-----------------------------------------------|
    d|--0--4-4-4-4-4---1-1-1-1-1---------------------|
    
    
    Chorus:
    e|---------------------------------------------------------|
    B|---------------------------------------------------------|
    G|-------5----------5-----------5-----------5--------------|
    D|-----4---4------4---4-------4---4-------4---4------------|
    A|---5------5---5-------5---5-------5---5-------5----------|
    d|-0----------0-----------0-----------0--------------------|
    
    e|---------------------------------------------------------|
    B|---------------------------------------------------------|
    G|--------3-----------3-----------3-----------3------------|
    D|------2---2-------2---2-------2---2-------2---2----------|
    A|----3-------3---3-------3---3-------3---3-------3--------|
    d|--0-----------0-----------0-----------0------------------|
    play…
Наверх