Аккорды Северный Флот - Стрелы

Добавлено: @romashka
Дата добавления: 12 Ноября 2013г.
Рейтинг:
0.0
Просмотров: 992
Транспонировать - +
Вступление:
1)-7-8---10--7-8---12--7-8---7-8-10-12-10--8-7-------|
2)-----5---------5---------5-------------------------|

Bass вступление(2 раза):
5)-0-0-0-0-0-0-0-0--2-2-2-2-2-2-2-2--3-3-3-3-3-3-3-3--5-5-3-3-2-2-2-2----

Вставка:
1)------------------------10------------------------10---------------------------|
2)------------------------10------------------------10---------------------------|
3)------------------------10------------------------10---------------------------|
4)-3-3-3-3-3--3-3-3-3-3-------3-3-3-3-3--3-3-3-3-3-------------------------------|
5)-3-3-3-3-3--3-3-3-3-3-------3-3-3-3-3--3-3-3-3-3-------------------------------|
6)-1-0-1-0-1--1-0-1-0-1-------1-0-1-0-1--1-0-1-0-1-------------------------------|

Куплет 1:
  A5
Скрытый под масками солнца сын,
 C5
Кончилась сказка, и ты один,
      F5        D5       E5
Тебе стало просто так много лет.
Чувствуешь дерево кожей рук?
Вот она - дверь - замыкает круг
Между жизнью и не жизнью твоей на земле.

Вставка.

Припев:
Am B      F              Em
Дело не доделано, кровь не остыла ещё,
И тело не согнули в бараний рог.
Знаю, за тебя всё измерили, ты не уверен,но
Стрелы выгоняют зверей из берлог.

Куплет 2:
Ноги не помнят, куда идти,
Руки не знают, кого спасти,
Этот город станет летним дождем.
В теплые шорохи наших снов
Ты ушел - гордый Король Шутов,
Только знай, что мы все здесь,
И мы все тебя ждём.

Вставка

Припев.

Вступление(2 раза)

Вставка.

Припев.

Вставка
Наверх