Аккорды «Shadows Fall»

Shadows Fall
Shadows Fall образовались в конце 1995 года гитаристами Джонатаном Донаисом и Мэтом Бахендом при помощи Адама Дуткевича. Джон хотел замутить новый проект после участия в Aftershock. Вокалист Фил Лабонт, басист Пол Романко и драммер Дэвид Гермаин позже присоединились к "гитарюгам", и, таким образом, первый состав Shadows Fall был укомплектован. Somber Eyes to the Sky - первый альбом, был выпущен в 1997 году с помощью рекорд лейбла Мэта - Lifeless Records. Дебютная запись привлекла к себе внимание… Читать полностью... Shadows Fall образовались в конце 1995 года гитаристами Джонатаном Донаисом и Мэтом Бахендом при помощи Адама Дуткевича. Джон хотел замутить новый проект после участия в Aftershock. Вокалист Фил Лабонт, басист Пол Романко и драммер Дэвид Гермаин позже присоединились к "гитарюгам", и, таким образом, первый состав Shadows Fall был укомплектован. Somber Eyes to the Sky - первый альбом, был выпущен в 1997 году с помощью рекорд лейбла Мэта - Lifeless Records. Дебютная запись привлекла к себе внимание публики, и группа заключила контракт с Century Media Records. Второй альбом Of One Blood был выпущен в 2000 году. На нем дебютировал новый вокалист - Брайна Феир, заменивший Фила ЛаБонта. А Фил собственно не обломался и замутил свою группу All THat Remains. Вокал Брайна сильно отличался от брутального дет-металлического вокала Фила тем, что у Брайана он совмещает и кричащий вокал, и гроул, и всякие хк-выкрикивания, и чистый вокал. "Revel in My Loss", "To Ashes" и "Fleshold" с Somber Eyes to the Sky были перезаписаны с новым вокалистом, и Shadows Fall отправились в мировой тур с такими "батеньками", как The Misfits, King Diamond и In Flames. Третий альбом был выпущен 17 сентября 2002 года и назывался The Art Of Balance. Он был навеян попыткой музыкантов найти баланс между мелодикой и агрессией. А вот Джейсон Биттнер стал новым драммером группы и вполне отлично справился со своей ролью. Этот альбом далеко ушел от мелодик-дет-метала, больше в сторону трэш-метала. Бэк-вокал Мэта началь использоваться почаще, чем это было раньше. Изменения в стиле были заметны в композиции "Stepping Outside the Circle", которую они представили на сборнике Fear Will Drag You Down, который включал в себя песни из Of One Blood и японского EP Deadworld. В 2003 году группу позвали на Ozzfest. Shadows Fall стала одной из самых лучших новых групп этого тура и продала больше всех дисков в ходе тура. Потом ещё поколесили в Японию, сгоняли на Beast Fest b MTV2's Headbanger's Ball tour с такими группами, как Killswitch Engage и Lamb of God. Shadows Fall выпустили 3 видео: "Thoughts Without Words", "Destoyer of Senses" и "The Idiot Box", а на Century Media Shadows Fall стали первой группой, которая продала больше 100 тысяч копий. Также на альбоме был супер-кавер на супер-группу Pink Floyd, а именно на песню Welcome To The Machine. Скрыть...
Популярные аккорды Shadows Fall:
алфавиту | просмотрам | случайно
  • Drop C Tuning- CGCFAD
    
    D-----------------------
    A-----------------------
    F--------4---3----------
    C--------4---3------7-7-
    G--------2---1------5-5-
    C-2-1-0---------0---5-5-
    
    D-----------------------
    A-----------------------
    F--------4---3----------
    C--------4---3------7-7-
    G--------2---1------5-5-
    C-2-1-0---------0---5-5-
    
    D----------------------------------
    A----------------------------------
    F----------------------------------
    C----------------------------------
    G-2-2-2-2-2-2-2-2-2-2-2-2-2-2-2-2--
    C-0-0-0-0-0-0-0-0-0-0-0-0-0-0-0-0--
    
    D-----------------------------------------
    A-----------------------------------------
    F--------4---3----------------------------
    C--------4---3------7-7-------------------
    G--------2---1------5-5-------5-----5-6-5-
    C-2-1-0---------0---5-5---0-0---0-0-------
    
    D----------------------------------------------
    A----------------------------------------------
    F--------4---3----------------------------3(PH)
    C--------4---3------7-7---6---5---3---5---3(PH)
    G--------2---1------5-5---6---5---3---5--------
    C-2-1-0---------0---5-5------------------------
    
    D-----------------------------------------
    A-----------------------------------------
    F--------4---3----------------------------
    C--------4---3------7-7-------------------
    G--------2---1------5-5-------5-----5-6-5-
    C-2-1-0---------0---5-5---0-0---0-0-------
    
    D-----------------------------------------
    A-----------------------------------------
    F---------------3-------5---------------3-
    C---------------3-------5---------------3-
    G-------5-------5-------3-------0-------1-
    C---0-0----0-0-----0-0-----0-0-----0-0----
    
    D-----------
    A-----------
    F-----------
    C-5---1---0-
    G-5---1---0-
    C-5---1---0-…
  • First 32 seconds
    
     D|------------------------------|
     A|------------------------------|
     F|-------------------2---3-2----|
     C|-----2-3-2-0-----3---3-----3--|
     G|---0---------3-1-------------1|     ___
     C|-0----------------------------|…
  • Tuning (low to high) C G C F A D
    
    
    () = hold note or play as indicated
    {} = repeat only this part
    b  = bend
    h  = hammer on
    p  = pull off
    v  = vibrate string
    /  = slide up
      = slide down
    .  = palm mute
    
    Set page to landscape…
  • Opening (riff 1)
    --------------------------|
    --------------------------|
    --------------------------|
    -5-/-4--------------------|
    -3-/-2---4-4-5-5-2-2------|
    ---------2-2-3-3-0-0------|
           pm__________
    
    The riff after…
  • Here is the Intro Riff for Pure
    I think they do something differant the third or so time, but this is the 
    main riff
    
    
    ----------------------------------------------------------------
    ----------------------------------------------------------------
    ----------------------------------------------------------------
    -------555--444--------------555--444---------------------------
    --333------------555---333-------------555----------------------
    ----------------------------------------------------------------
    
    ----------------------------------------------------------------
    ----------------------------------------------------------------
    ----------------------------------------------------------------
    --------999------------------------999--777-10-10-10------------
    -3/777-------10-10-10---999---777-------------------------------
    ----------------------------------------------------------------
    
    This…
  • ..  - palm mute          /  - slide up to
       - slide down to      ~  - vibrato
     h  - hammer on          b  - bend
     p  - pull off            Suffixes for bend
                              ph - pinch harmonic…
  • Tuning: DADGBe
                                                          
    Guitar 1----------RIff 1                         Play 4X 
    ||-3-----3---5-----|-----6-----------|-------------2-----||----------------|
    ||---3-----3----3--|---3---3---------|-3----------------o||----------------|
    ||-----3-----------|-3------------3--|---3-------3---3---||----------------|
    ||-5---------5-----|------------5----|---------4---------||----------------|
    ||-----------------|---------6-------|------5-----------o||----------------|
    ||-----------------|-----------------|-------------------||----------------|
    
    Guitar…
  • Drop tuning one half step on all strings
    
    This is the opening right after the bass and fed-back intro 
    |------------------------------| 
    |------------------------------|
    |------------------------------|
    |-------3-------3-2/4----------|
    |-5-5-5---5-5-5----------------|
    |------------------------------|
    
    |------------------------------|
    |------------------------------|
    |------------------------------|
    |------------------------------|
    |-------5-------5-4------------|
    |-6-6-6---6-6-6-----5----------|…
  • ^ = palm mute
    ( ) = pinch harmonic
    / = slide
    b = bend
    r = release bend
    h = hammer on
    p = pulloff
    
    Tuning (low to high): D G C F A D
    
    INTRO
    
    gtrs. 1&2
    D|------------------------------------------------------------|
    A|------------------------------------------------------------|
    F|------------------------------------------------5---------3-|
    C|------------------------------------------------5---5--4--3-|
    G|------------------------------------------------3---5--4--1-|
    D|-0-0-0--0-0--0-0-0--0-0--0-0-0--0-0--0-0-0--0-0-----3--2----|…
  • Tune 1 step down ( D G C F A d ) *low to high
    
    GTR 1 = Matt Bachand
    GTR 2 = Jon Donais
    
    “  = tremelo picking  p = pull off
    tr = trill            / = slide down to note
    h  = hammer on         = slide up to note
    
    Riff A1
    |--------------------|---------------------------|
    |--------------------|---------------------------|
    |-7/9------------5-4-|-7-7/9---------------------|
    |-7/9--------5---5-4-|-7-7/9--------5”-4”-7”-5p4-|…
  • Intro--
    |-----------------|-----------------|-----------------|-----------------|
    |-----------------|-----------------|-----------------|-----------------|
    |-----------------|-----------------|-----------------|-----------------|
    |-------------3---|---7-5-----------|-------------3---|---7-5-----------|
    |-0-1-0-5-3-0-1-3-|-0-53-0-3-5-0-6-|-0-1-0-5-3-0-1-3-|-0-53-0-3-5-3h5-|
    |-0-1-0-5-3-0---3-|-0-----0-3-5-0-6-|-0-1-0-5-3-0---3-|-0-----0-3-5-----|
    
    
    |-------------|-----------------|----------------|---------------|
    |-------------|-----------------|----------------|---------------|
    |-------------|-----------------|----------------|---------------|
    |-------------|-----------------|----------------|---------------|
    |-0-----6---5-|-0-0-0--3-5-00-0-|-5~--0--6-----5-|-0-0-0-1-3-6---|
    |-0-----6---5-|-0-0-0--3-5-00-0-|-----0--6-----5-|-0-0-0-1-3-6---|
    
    |-------------|-----------------|----------------|-----------------|
    |-------------|-----------------|----------------|-----------------|
    |-------------|-----------------|----------------|-----------------|
    |-------------|-----------------|-ph-------------|-----------------|
    |-0-----6---5-|-0-0-0--3-5-00-0-|-5~--0--6-----5-|-0-0-0-0-0-0-0-0-|
    |-0-----6---5-|-0-0-0--3-5-00-0-|-----0--6-----5-|-0-0-0-0-0-0-0-0-|
    
    
    |-----------------|---------------------|----------------12--8------|
    |-----------------|---------------------|--------11------13------11-|
    |-----------------|---------------------|----9---12--9-------12--10-|
    |-----------------|---------------------|-7--10------10-------------|
    |-0-0-0-0-0-0-0-0-|-00-0-00-0-00-0-00-0-|-8-------------------------|
    |-0-0-0-0-0-0-0-0-|-00-0-00-0-00-0-00-0-|---------------------------|
    
    |-------------|-----------------|----------------|---------------|
    |-------------|-----------------|----------------|---------------|
    |-------------|-----------------|----------------|---------------|
    |-------------|-----------------|----------------|---------------|
    |-0-----6---5-|-0-0-0--3-5-00-0-|-5~--0--6-----5-|-0-0-0-1-3-6---|
    |-0-----6---5-|-0-0-0--3-5-00-0-|-----0--6-----5-|-0-0-0-1-3-6---|
    
    |-------------|-----------------|----------------|---------------|
    |-------------|-----------------|----------------|---------------|
    |-------------|-----------------|----------------|---------------|
    |-------------|-----------------|-ph-------------|---------------|
    |-0-----6---5-|-0-0-0--3-5-00-0-|-5~--0--6-----5-|-0-0-0-1-3-6---|
    |-0-----6---5-|-0-0-0--3-5-00-0-|-----0--6-----5-|-0-0-0-1-3-6---|
    
    |-------------|-------------|---------------|
    |-------------|-0--(0)------|---------------|
    |-------------|-0--(0)------|---------------|
    |-------------|-0--(0)------|-pick…
Наверх