Аккорды Shocking Blue - Venus

Добавлено: @romashka
Дата добавления: 08 Июля 2016г.
Рейтинг:
0.0
Просмотров: 416
Транспонировать - +
intro
%      v  v ^ v ^ v     %
e
|---0--0--2--0--5--5--6--5-|--0--0--3--0--5--5--6--5--|--------|--0---------------------

b |
-----------------------------|--0--0--3--0--5--5--6--5--|--------|--0-------------------

g
-------------------------------------|--------|--2----------------------

d
-------------------------------------|--------|--4----------------------

a
-------------------------------------|--------|--0----------------------

e
-------------------------------------|--------|--0----------------------

  |
  |
%                        %                                 %
d-----------------------------------------|-----|------

a------0--0--1--0-------------------|--------|--2-2-2-2-2-2-2|-------

e|---0--0--3--0-------------------------------------|------|-



    KUPLET v  ^              v   ^          %      %      %
e
|---------0--0----------0--0---|-------|------------------------------------

b
|---------0--0----------2--2---|-------|-------------------------------------

g
|---------0--0----------2--2---|-------|--------------------------------------

d
|---------2--2----------2--2---|-------|-----------------------------------

a
|---------2--2----0--0---------|-------|-----------------------------------------

e
|---0--0------------------------|-------|----------------------------------------

  |
  |                                                 %       %       %
d---------------------|-------|---------------------------------

a-------0--0--1--0--|-------|-----------------------------------

e|---0--0--3--0-----------------|-------|-------------------------------

PREPEW
e
|-5----------------|---5--5--5----5--5--5--5---|---3--0----------|-------0--0---------0--0--|--7--7--5--7-----

b
|-5----------------|---5--5--5----5--5--5--5---|---0--0----------|-------0--0---------2--2--|--4--4--4--4------

g
|-5----------------|---5--5--5----5--5--5--5---|---0--0----------|-------0--0---------2--2--|--4--4--4--4-------

d
---------------------------------|--------2--2--------2--2--|--4--4--4--4------

a
---------------------------------|--------2--2---0--0--------------

e
---------------------------------|--0--0---------------------|---------

  |
  |
d|----------0-0-1-0|---1--2--------0--0--1--2------------------------------

a|-0-0-3-0---------|----------3--0----------------0-0-1-2|-3-3--3--3--3-3-3-3---|-2-2-2-2-2-0-3-0---

e---------------------------|---0-0-3-0-------------------------------  




Наверх