Аккорды «Silverchair»

Silverchair
За первые 10 лет своего существования австралийская группа "Silverchair" произвела на свет невероятное количество хитов, обогнав в этом плане многих своих земляков, а ее альбомы разошлись по всему миру шестимиллионным тиражом. Ребята из Ньюкасла Дэниел Джонс (вокал, гитара) и Бен Гиллис (ударные) начали совместные занятия музыкой чуть ли не с первых школьных классов. Когда к ним на басу присоединился Крис Иоанну, образованная группа получила название "Innocent criminals". В те годы парнишки играли… Читать полностью... За первые 10 лет своего существования австралийская группа "Silverchair" произвела на свет невероятное количество хитов, обогнав в этом плане многих своих земляков, а ее альбомы разошлись по всему миру шестимиллионным тиражом. Ребята из Ньюкасла Дэниел Джонс (вокал, гитара) и Бен Гиллис (ударные) начали совместные занятия музыкой чуть ли не с первых школьных классов. Когда к ним на басу присоединился Крис Иоанну, образованная группа получила название "Innocent criminals". В те годы парнишки играли в основном каверы из репертуара "Led Zeppelin", "Black Sabbath" и "Deep Purple". Когда музыкантам стукнуло по 15 лет, их песня "Tomorrow" победила на национальном конкурсе. Несмотря на юный возраст участников, группа тут же получила контракт и вскоре "Tomorrow" вышла в виде сингла. Успех был неимоверный, и композиция провела шесть недель на вершине национального хит-парада. В 1995 году "Silverchair", уже порядком погрязшие в "альтернативе", выпустили дебютный альбом "Frogstomp". В Австралии и Новой Зеландии пластинка заняла ведущую позицию, а также попала в американский Топ 10, чего не случалось с другими командами зеленого континента со времен "INXS". На следующий год "Silverchair" провели солидное турне в компании с "Red Hot Chili Peppers", а в 1997-м выдали на-гора второй лонгплей, "Freak Show". Этот альбом, содержавший три суперхита ("Freak", "Abuse me" и "Cemetery") разошелся полуторамиллионным тиражом, а в Америке достиг золотого статуса. При всем при этом ребята успевали еще учиться, и только в 1998-м они освободились от школьных обязанностей. Избавившись от этого груза "Silverchair" вплотную занялись музыкой и чтобы избежать надоевших сравнений с "Nirvana", "Soundgarden" и другими сиэттловцами, соорудили оригинальный альбом "Neon Ballroom". На протяжении 1999 года команда усиленно моталась по Европе и Америке, успев выступить на многих серьезных фестивалях. Гастрольная жизнь настолько утомила музыкантов, что по окончании туров они объявили о 12-ти месячном тайм-ауте. Исполнив свои обязательства перед австралийской "Sony Music", "Silverchair" заключили новый контракт с "Atlantic Records", распространявшийся на Южную и Северную Америку, а также основали свой лейбл "Eleven" для дистрибуции в Австралии и Азии. В 2000 году трио дало всего один концерт, проходивший в рамках "Australia’s Falls Festival". Зато следующий год начался довольно бурно – в январе команде пришлось выступать на фестивале "Rock in Rio" перед 250-тысячной аудиторией. Летом музыканты отправились в студию вместе с продюсером Дэвидом Боттриллом ("Tool", Питер Гэйбриел, "King Crimson"). Результатом их сотрудничества стал четвертый диск, "Diorama". Выход альбома предварялся появлением сингла "The Greatest View", долго крутившимся на австралийском радио и занявшим в "альтернативных" чартах первую позицию. Сам альбом "Diorama" получился немного посветлее и полегче предыдущих релизов, однако это не помешало ему возглавить национальный хит-парад. Скрыть...
Популярные аккорды Silverchair:
алфавиту | просмотрам | случайно
  • [0:00]Intro
    
    Guitar 1
    e||------------------------------------------|| x2
    B||------------------------------------------||
    G||------------------------------------------||
    D||-2-2---7-5-5--5-4-2--3--3-3-3--3--3-3-3---||
    A||-2-2---7-5-5--5-4-2--3--3-3-3--3--3-3-3---||
    E||-0-0---5-4-3--3-2-0--1--1-1-1--1--1-1-1---||
    
    Guitar…
  • Tuning: Dropped D
    
    |----------|-------------------------|
    |Gtr Intro-|-------------------------|  6x
    |-4--Bars--|-------------------------|
    |----------|-2--0-2-2--2-2-2--0-0-0--|
    
    |---------------------------------------------------------|
    |---------------------------------------------------------|
    |---------------------------------------------------------|
    |-0--3-4-4---0-0---3-4-4-4-4---0--3-4-4---0-0---3-4--4/6--|
    
    |----------------------------------------------------------------------|
    |----------------------------------------------------------------------|
    |--------------------------------------------------------------hold----|
    |-0--3-4-4----0-0---3-4-4-4-4----0--3-4-4---0-0---3--4-4-4----3----3---|
    
    |-------------------------------------------------------------|
    |-------------------------------------------------------------|
    |-------------------H------------------------------H----------|
    |-2--0-2-2--2-2-0--2-3--3--0-----2--0-2-2--2-2-0--2-3--3--0---|
    
    |----------------------------------------------------------------|
    |----------------------------------------------------------------|
    |---3-3--5----------3-3--------------3-3--5----------3-3---------|
    |-3---------0--0--3------0-0-0----3---------0--0--3------0-0-0---|
    
    |-------------------------|
    |-------------------------|…
  • C         G        
    Millionaire say
           D
    Got a big shot deal
    And thrown it all away but
     C               G        
    But I´m not too sure
               D
    How I´m supposed to feel
    Or what I´m supposed to…
  • Start after the... Wah, Wah, Wah, Wah
    Bass solo
    G--------------------------------------------
    D--------------------------------------------
    A--------------------------------------------
    E-0-2-2-0-4-3-0-6-5-0-8-7-0-11r--------------
    Play…
  • D#          Cm   Gm
    Please die Ana
    For as long as you´re here we´re not
    You make the sound of laughter
    And sharpened nails seem softer
    
    And I need you now somehow
    And I need you now somehow
    
    [Bridge] (distortion)
    -----|
    -----|
    |--3-3-3--2-2-2--|
    |--3-3-3--3-3-3--|
    |--1-1-1--3-3-3--|
    |---------1-1-1--|
    
    [Chorus]…
  • Intro
    
    E|-----7--------5-----3-3--2/3-----3------7----7h8---10--------5-3-3--3-2-0----------------|
    B|--/8---8----3---3---3--------3-------/8---------------8----3---3----------3/5------------|
    G|---0------0------0--0----------0------0----0-----0-------0-----0---------------2/0-------|
    D|----------0-------------------------------------------------------------------------0-1--|
    A|-----------------------------------------------------------------------------------------|
    E|-----------------------------------------------------------------------------------------|
    
    
    Verse
    
    E|-0-----2-----------0-------0-----2-----------------------0-|…
  • Tuning: From standard, tune the low E string down to a B. 
    
    Intro:
    e----------------------------------------------------------
    B----------------------------------------------------------
    G----------------------------------------------------------
    D----------------------------------------------------------
    A-2--2--5-2-2-5---2--5-2-2--3--3-3-/12--12-12-1012b13r-1012
    B-0--0--3-0-0-3---0--3-0-0--1--1-1-/10--10-10-8-10b11r-8-10…
  • Tuning: Open Db5 (Db-Ab-Db-Ab-Db-Db)
     
    Intro/Verse:
    Db---------------------------------------------------------
    Db---------12-12-12-----12--12---------11-11-11-----11—-11-
    Ab---------------------------------------------------------
    Db--0---0--12-12-12-0---12--12--0---0—-11-11-11-0---11—-11-
    Ab--0---0--0--0--0--0---0---0---0---0--0--0--0--0---0---0--
    Db--0---0--0--0--0--0---0---0---0---0--0--0--0--0---0---0—-
    Miles…
  • This song is in drop-D tuning.
    
    Intro: without heavy distortion
    
    G------------------------|
    D------------------------|
    A---------3--------5-----|
    D-0-0-3/5----0-3/5-------| ...x4
    
         : with heavy distortion
    
    G------------------------|
    D------------------------|
    A---------3--------5-----|
    D-0-0-3/5----0-3/5-------|…
  • Drop D tuning
    
    Verse:
    G ----------------------------------------l
    D ----------------------------------------l
    A ----------------------------3-----------l
    D -7-7-5-7-5-----2-3-3---0-0--------------l
    
    Bridge
    G ----------------------------------------l
    D…
  • Verse
           A5       G5 F5        G5
    e||--------5-----------1-----3----||
    B||--------5-----------1-----3----||
    G||-o------------------------x--o-||
    D||-o--7-------7-5-3-------3-5--o-||
    A||----7-------7-5-3-------3-5----||
    E||----5-------5-3-1-------1-3----||
    Moon…
  • Intro and Verse
    e|-----------------------------------|-0---|
    B|-----------------------------------|---0-|
    G|-------4-----4---------4-----4---4-|-----|
    D|-----4-----4---4-----4-----4-------|-----|
    A|-0-2---------------------------0---|-----|
    E|---------3-------3-0-----2---------|-----|
    
    Chorus
    [chord…
  • Tuning = Standard
    
    KEY
    h-hammer on     /-slide         p-pull off
    ^-bend          ~~~-vibrato     r-release
    
    intro (Clean)
    E|-------0----------------0---------------3p2--------------------------|
    B|---------2------2----------2-----------------3-----------------------|
    G|-------------2--2--------------0----2------------2-----0-----0-------|
    D|---2-------2----2---2--------2----0---0--------0-----2-----0---------|
    A|-0---0----------0-----0----------------------------3-----2-------2---|
    E|---------------------------------------------------------------3-----|
    
    Verse…
  • (guitar 1 only) Liberate the people that you hate
    
    E|-----4-------------------------------4--------------------------------------|
    
    E|----4---4---4---4---4---4---4---4----| x 2
    
    While guitar 2 does Led Zep type thing over…
  • Drop-D Tuning
    
    Intro: (Sitar arranged for guitar)
    e--------------------------------------------------
    B--------------------------------------------------
    G----5--x-4--2--0-2-4-2-0--------------------------
    D--0-0--x-0--0--0-0-0-0-0--------------------------
    A--0-----------------------------------------------
    D--0-----------------------------------------------
    x4…
  • Drop D Tuning
    
    There are various rhythms to the main riff in the song,
    but if you stick by this and then adapt it to the 
    drumbeat, you won't go wrong:
    
    E-----------------------------|
    B-----------------------------|
    G-----------------------------|…
  • Drop-D Tuning
    
    Intro:
    e--------------------------------------------------
    B-----------11---8------8--------------------------
    G-----------10---7------7--x-x---------------------
    D----0------8----5----5-5--x-x---------------------
    A--0-----8--8----5----5-5--x-x---------------------
    D------8----8----5----5-5--------------------------
    
    Verse:…
  • **NORMAL TUNING**
    
      INTRO
    e:-------------------------------------------------------|
    B:-------------------------------------------------------|
    G:---------------------------------3---3-3-3----5--------|
    D:-5---5-5-5----7---7-7-7-7-7-7----3---3-3-3----5--------|
    A:-5---5-5-5----7---7-7-7-7-7-7----1---1-1-1----3--------|
    E:-3---3-3-3----5---5-5-5-5-5-5--------------------------|…
  • **TUNING**
    Drop d (i have the freak show tab book and to all of you who think this song 
    is in E, well, it's not. it's actually in drop D)
    
    VERSE 1
    E|---|----------------------|-------0-----------|----------------------|
    B|---|----------1---0-------|-------0---0-----0-|----------1---0-------|
    G|-0-|----0-----0---0-----0-|-------0---0-----0-|----0-----0---0-----0-|
    D|-0-|----------------------|---2---------------|----------------------|
    A|---|-3-----3--------3-----|-------------2-----|-3-----3--------3-----|
    E|---|----------------------|-2---2-------------|----------------------|
    
    E|-------0-----------|---------------------|-------0-----------|
    B|-------0---0-------|----------1---0----0-|-------0---0-------|
    G|-------0---0-----0-|----0-----0---0----0-|-------0---0-----0-|
    D|---2-------------0-|---------------------|---2-------------0-|
    A|-------------2-----|-3-----3--------3----|-------------2-----|
    E|-2---2-------------|---------------------|-2---2-------------|
    
    E|----------------------|-------0-----------|----------------------|
    B|----------1---0-------|-------0---0-----0-|----------1---0-----0-|
    G|----0-----0---0-----0-|-------0---0-----0-|----0-----0---0-----0-|
    D|--------------------0-|---2---------------|--------------------0-|
    A|-3-----3--------3-----|-------------2-----|-3-----3--------3-----|
    E|----------------------|-2---2-------------|----------------------|
    
    E|-------0-----------|---------------------|-------0-----------|
    B|-------0---0-------|----------1---0----0-|-------0---0-------|
    G|-------0---0-----0-|----0-----0---0----0-|-------0---0-----0-|
    D|---2-------------0-|-------------------0-|---2-------------0-|
    A|-------------2-----|-3-----3--------3----|-------------2-----|
    E|-2---2-------------|---------------------|-2---2-------------|
    
    E|------------------------|-------0--------------|
    B|----------3-----1-----0-|-------0----0-------0-|
    G|----0-----0-----0-----0-|-------0----0-------0-|
    D|----------------------0-|---2--------2---2---2-|
    A|-3-----3-----3-----3----|----------------2---2-|
    E|------------------------|-2---2----------2-----|
    
    E|----------------------|-------------0----------0-|
    B|-1------3---3---1---0-|-(0)--0---3----3-0--2---1-|
    G|-2------2---2---2-2-2-|-(2)--2---2----2-2--2---0-|
    D|-2----------2-------2-|-(2)--2---2----2-2--2---2-|
    A|-0----------0-------0-|-(0)--0--------0----0---3-|
    E|----------------------|--------------------------|
    
    VERSE…
  • Legend
    ------
    
     h  = hammer-on
     p  = pull-off
     b  = bend
     r  = bend release
     /  = slide up/down
     = natural harmonic
    [5] = artifical harmonic
     ~  = vibrato
     tr = trill
    
     *  = replace these notes with rests after…
  • **Key**
    P.M.--palm mute
    /--slide
    h--hammer on
    
    **Tuning** Dropped-D
    
    Intro 
    P.M.---------------------|
    
    E|-------------------------|
    B|-------------------------|
    G|-------------------------|
    D|-------------------------|
    A|--/5-------5-5-5---------|
    D|---0-0-0-0-0-0-0-0-0-0-0-|
    
    For…
  • Intro / Verse:
    e--------------------------------------------------
    B-----1--1-1--1--0--0--0-0--3--3--3-3--1-1--1-1-1-1
    G-----0--0-0--0--0--0--0-0--0--0--0-0--0-0--0-0-0-0
    D-----2--2-2--2--2--2--2-2--2--2--2-2--2-2--2-2-2-2
    A--3--3--3-3--3--3--3--3-3--3--3--3-3--3-3--3-3-3-3
    E--------------------------------------------------
    x2
    
    Fill:
    e-----4--4-4--4--4-4--4-4-4-4----------------------
    B-----0--0-0--0--0-0--0-0-0-0----------------------
    G-----4--4-4--4--4-4--4-4-4-4----------------------
    D-----3--3-3--3--3-3--3-3-3-3----------------------
    A--4--4--4-4--4--4-4--4-4-4-4----------------------
    E--------------------------------------------------
    
    Sitar…
  • Standard Tuning: E A D G
    
    G|--------------------------------------------------------------------------------------------|
    D|--------------------------------------------------------------------------------------------|
    A|--------------------------------------------------------------------------------------------|
    E|--0-0-0-0----0-0-0-0----0-0-0-0----0-0-0-0----0-0-0-0----0-0-0-0----0-0-0-0----0-0-0-0------|
    
    G|--------------------------------------------------------------------------------------------|
    D|--------------------------------------------------------------------------------------------|
    A|--------------------------------------------------------------------------------------------|
    E|--0-0-0-0----0-0-0-0----0-0-0-0----0-0-0-0----0-0-0-0----0-0-0-0----0-0-0-0----0-0-0-0------|
    
    G|--------------------------------------------------------------------------------------------|
    D|--------------------------------------------------------------------------------------------|
    A|--------------------------------------------------------------------------------------------|
    E|--0--0--3-0--5-5-5-5-----0--0--3-0--5-5-5-5-----0--0--3-0--5-5-5-5-----0--0--3-0--5-5-5-5---|
    
    G|--------------------------------------------------------------------------------------------|
    D|--------------------------------------------------------------------------------------------|
    A|--3-3--3/5--5-5--5/-----7-7---/9-9-9--------------------7-7---/9-9-9----------------------|
    E|------------------------------------------3-3---/5-5-5----------------------3-3---/5-5-5----|
    
    G|--------------------------------------------------------------------------------------------|
    D|--------------------------------------------------------------------------------------------|
    A|--7-7--/9-9-9-----------------7-7--/9-9-9-----------------7-7--/9-9-9--------------------|
    E|-----------------3-3--/5-5-5-------------------3-3--/5-5-5------------------3-3---/5-5-5----|
    
    G|--------------------------------------------------------------------------------------------|
    D|--------------------------------------------------------------------------------------------|
    A|--7-6-5-4----3-3---3/5--5-5-5/--------------------------------------------------------------|
    E|--------------------------------0-0--2-2-2----3-3---5-5-5---0-0-0----2-2-2-2---2-2---3-3-3--|
    
    G|--------------------------------------------------------------------------------------------|
    D|--------------------------------------------------------------------------------------------|
    A|--------------------------------------------------------------------------------------------|
    E|--5-5-5-5--5-5----0-0--2-2-2---3-3---5-5-5---0-0-0----2-2-2-2---2-2---3-3-3--5-5-5-5--5-5---|
    
    G|--------------------------------------------------------------------------------------------|
    D|--------------------------------------------------------------------------------------------|
    A|------------------------------------7-6-5-4----0-----3-3----3/5----5-5-5/------7--5--0------|
    E|--0-0---2-2-2-----3-3----5-5-5--------------------------------------------------------------|
    
    G|--------------------------------------------------------------------------------------------|
    D|--------------------------------------------------------------------------------------------|
    A|--------------------------------------------------------------------------------------------|
    E|--0--0--3-0--5-5-5-5-----0--0--3-0--5-5-5-5-----0--0--3-0--5-5-5-5-----0--0--3-0--5-5-5-5---|
    
    G|--------------------------------------------------------------------------------------------|
    D|--------------------------------------------------------------------------------------------|
    A|--3-3---3/5---5-5--5/------7--5--0------------7-7---/9-9-9--------10--10----/12--12--12----|
    E|--------------------------------------------------------------------------------------------|
    
    G|--------------------------------------------------------------------------------------------|
    D|--------------------------------------------------------------------------------------------|
    A|--7-7-7--------9-9-9-9--------9-9--------10--10--10-------12--12--12--12-----------12--12---|
    E|--------------------------------------------------------------------------------------------|
    
    G|--------------------------------------------------------------------------------------------|
    D|--------------------------------------------------------------------------------------------|
    A|--7-7-7--------9-9-9-9--------9-9--------10--10--10-------12--12--12--12-----------12--12---|
    E|--------------------------------------------------------------------------------------------|
    
    G|--------------------------------------------------------------------------------------------|
    D|--------------------------------------------------------------------------------------------|
    A|--7-7-7--------9-9-9-9--------9-9--------10--10--10-------12--12--12--12-----------12--12---|
    E|--------------------------------------------------------------------------------------------|
    
    G|--------------------------------------------------------------------------------------------|
    D|--------------------------------------------------------------------------------------------|
    A|--7-7-7--------9-9-9-9--------9-9--------10--10--10-------12--12--12--12-----------12--12---|
    E|--------------------------------------------------------------------------------------------|
    
    G|--------------------------------------------------------------------------------------------|
    D|--------------------------------------------------------------------------------------------|
    A|--7-7-7--------9-9-9-9--------9-9--------10--10--10-------12--12--12--12-----------12--12---|
    E|--------------------------------------------------------------------------------------------|
    
    G|--------------------------------------------------------------------------------------------|
    D|--------------------------------------------------------------------------------------------|
    A|--7-7-7--------9-9-9-9--------9-9--------10--10--10-------12--12--12--12-----------12--12---|
    E|--------------------------------------------------------------------------------------------|
    
    G|--------------------------------------------------------------------------------------------|
    D|--------------------------------------------------------------------------------------------|
    A|--7--6--5--4-------0-------3--3-----3-/-5--------5--5--5-/----------------7--5--0-----------|
    E|--------------------------------------------------------------------------------------------|
    
    G|--------------------------------------------------------------------------------------------|
    D|--------------------------------------------------------------------------------------------|
    A|--------------------------------------------------------------------------------------------|
    E|--0--0--3-0--5-5-5-5-----0--0--3-0--5-5-5-5-----0--0--3-0--5-5-5-5-----0--0--3-0--5-5-5-5---|
    
    G|--------------------------------------------------------------------------------------------|
    D|--------------------------------------------------------------------------------------------|
    A|--3-3---3/5---5-5--5/-------7--5------0---0-0------0-0-0-0-------3^----0---------5-5-5-5----|
    E|--------------------------------------------------------------------------------------------|
    
    G|--------------------------------------------------------------------------------------------|
    D|--------------------------------------------------------------------------------------------|
    A|--0--0-0---0-0-0-0-----3^---0---5-5-5-5------0--0-0---0-0-0-0------3^----0--------5-5-5-5---|
    E|--------------------------------------------------------------------------------------------|
    
    G|--------------------------------------------------------------------------------------------|
    D|--------------------------------------------------------------------------------------------|
    A|--0--0-0---0-0-0-0----3^---0----5-5-5-5-------1-1-1-1----1-1-1-1--/---2-2-2-2---2-2-2-2-----|
    E|--------------------------------------------------------------------------------------------|
    
    G|--------------------------------------------------------------------------------------------|
    D|--------------------------------------------------------------------------------------------|
    A|--3-3-3-3---3-3-3-3--/-5-5-5-5--5-5-5-/-7-7-------------------------------------------------|
    E|----------------------------------------------0-0-0-0----0-0-0-0----0-0-0-0----0-0-0-0------|
    
    G|--------------------------------------------------------------------------------------------|
    D|--------------------------------------------------------------------------------------------|
    A|--------------------------------------------------------------------------------------------|
    E|--0--0--3-0--5-5-5-5-----0--0--3-0--5-5-5-5-----0--0--3-0--5-5-5-5-----0--0--3-0--5-5-5-5---|
    
    G|--------------------------------------------------------------------------------------------|
    D|--------------------------------------------------------------------------------------------|
    A|--------------------------------------------------------------------------------------------|
    E|--0-0-0-0----0-0-0-0----0-0-0-0----0-0-0-0----0-0-0-0----0-0-0-0----0-0-0-0----0-0-0-0------|
    
    G|--------------------------------------------------------------------------------------------|
    D|--------------------------------------------------------------------------------------------|
    A|--------------------------------------------------------------------------------------------|
    E|--0-0-0-0----0-0-0-0----0-0-0-0----0-0-0-0----0-0-0-0----0-0-0-0----0-0-0-0----0-0-0-0------|
    
    G|--------------------------------------------------------------------------------------------|
    D|----------------------------------------------------------------------|
    A|--3-3---3/5---5-5--5/-------7--5------0----0----0-----0----0--------------------------------|
    E|--------------------------------------------------------------------------------------------|…
  • Drop D Tuning
    
    Chords required:
    
    	D# F  G# A  Bb C  C#
    E----------------0--1--3--4---
    B----------------2--3--5--6---
    G----------------2--3--5--6---
    D-------1--3--6--2--3--5--6---
    A-------1--3--6--0--1--3--4---
    D-------1--3--6---------------
    
    Introduction…
  • [STANDARD TUNING]
    
    Intro...
    
    Dm  Cadd9  Am7  Fmaj7  G6  
    C/D (no third) [hammer]  Dm  Cadd9  Am7  Fmaj7  G6
    C/D (no third) [hammer]  Dm  Cadd9  Am7.....
    
    Verse...
    
    C/D (no third) [hammer]  Dm  Cadd9  Am7  Bbsus2/F  G5 :||
    
    Chorus...
    
    Dm…
  • Tuning Dropped D (dadgbe)
    
    intro
    E|--------------------------------------------------
    B|--------------------------------------------------
    G|--------------------------------------------------
    D|-3-3-3-3--3-3-3-3--5-5-5-5--5-5-5-5---------------
    A|-1-1-1-1--1-1-1-1--3-3-3-3--3-3-3-3---------------
    D|------------------------------------0-------------
    
    verse
    E|--------------------------------------------------
    B|--------------------------------------------------
    G|--------------------------------------------------
    D|-0-0--0-5-0-3----7-6-5----------------------------
    A|-0-0--0-5-0-3----5-4-3----------------------------
    D|-0-0--0-5-0-3-00----------------------------------…
  • *TUNING*-STANDARD (except guitar 2 on one part, dropped-d)
    
    *KEY*
    x-play muted strings
    /-slide up
    
    *NOTES*
    This tab should be pretty accurate...Most of the errors are probably in
    the strumming pattern and/or the number of…
  • C
    You don't know the truth
    Cmaj       F 
    and I love your life
    C
    And you don't know the truth 
    Cmaj       F
    and I love your life
    
    C
    Thrust the candle 
                Fm        C
    to the dark of your disease
    C
    Burn the fishplate…
  • Tuning:Drop D
    HAR=Harmonic
    e|---------------------------------------------------------------------------|
    B|---------------------------------------------------------------------------|
    G|-7-----7--7--7----------6-----6--6--6----------7---------------------------|
    D|-5-----5--5--5----------5-----5--5--5----------5---------------------------|
    A|-5-----5--5--5----------5-----5--5--5----------5---------------------------|
    E|-5-----5--5--5----------5-----5--5--5----------5-----5--5--5--5--5---------|
    
    e|---------------------------------------------------------------------------|
    B|---------------------------------------------------------------------------|
    G|------------------------------------------------------------6--------------|
    D|------------------------3-----------------------------------6--------------|
    A|---0H3H5----0H3H5-------3------------0H3H5------0H3H5-------4--------------|
    E|-0---------0----------0-3----------0----------0-----------0-4--------------|
    
    e|---------------------------------------------------------------------------|
    B|---------------------------------------------------------------------------|
    G|---------------------------------------------------------------------------|
    D|---------------------------3-------------------------------6---------------|
    A|---------------------------3-------------------------------4---------------|
    E|-0----------HAR7-0-HAR7-0--3-----0----------HAR7-0-HAR7-0--4---------------|
    
    e|---------------------------------------------------------------------------|
    B|---------------------------------------------------------------------------|
    G|---------------------------------------------------------------------------|
    D|---------------------------3-------------------------------6--6--6---------|
    A|---------------------------3-------------------------------4--4--4---------|
    E|-0----------HAR7-0-HAR7-0--3-----0----------HAR7-0-HAR7-0--4--4--4---------|
    
    e|---------------------------------------------------------------------------|
    B|---------------------------------------------------------------------------|
    G|---------------------------------------------------------------------------|
    D|---------------------------------------------------------------------------|
    A|---------------------------------------------------------------------------|
    E|-0----------HAR7-0-HAR7-0--------------------------------------------------|
    
    e|---------------------------------------------------------------------------|
    B|---------------------------------------------------------------------------|
    G|-3-----3-3-3-3---3--3--3--3--3-----3-3-3-3---------------------------------|
    D|-1-----1-1-1-1---1--1--1--1--1-----1-1-1-1-----6--6------------------------|
    A|-1-----1-1-1-1---1--1--1--1--1-----1-1-1-1-----4--4------------------------|
    E|-1-----1-1-1-1---1--1--1--1--1-----1-1-1-1-----4--4------------------------|
    
    e|---------------------------------------------------------------------------|
    B|---------------------------------------------------------------------------|
    G|-3-----3-3-3-3---3--3--3--3--3-----3-3-3-3---------------------------------|
    D|-1-----1-1-1-1---1--1--1--1--1-----1-1-1-1---------------------------------|
    A|-1-----1-1-1-1---1--1--1--1--1-----1-1-1-1-----0------0------0-3-----------|
    E|-1-----1-1-1-1---1--1--1--1--1-----1-1-1-1-----0------0------0-3-----------
    
    e|---------------------------------------------------------------------------|
    B|---------------------------------------------------------------------------|
    G|---------------------------------------------------------------------------|
    D|---------------------------------------------------------------------------|
    A|--------3-5-5--------3-5-5-5-----------------------------------------------|
    E|-0---00-------0---00-------------------------------------------------------|
    
    e|---------------------------------------------------------------------------|
    B|---------------------------------------------------------------------------|
    G|---------------------------------------------------------------------------|
    D|----------------------------------10---------------------------------------|
    A|-10-9-0-10-9-0-10-9-0-10-9-0-10-0-8----------------------------------------
    E|-10-9-0-10-9-0-10-9-0-10-9-0-10-0-8----------------------------------------|
    
    e|---------------------------------------------------------------------------|
    B|---------------------------------------------------------------------------|
    G|---------------------------------------------------------------------------|
    D|---------------------------------------------------------------------------|
    A|-2-1-0-2-1-0-2-1-0-2-1-0-2-1-0---------------------------------------------|
    E|-2-1-0-2-1-0-2-1-0-2-1-0-2-1-0---------------------------------------------|
    
    
    |…
  • Play in Drop D
    
    ***rest for drums (0:00 - 0:06)***
    
    Riff A: (4 times)
    A--2222-----------------
    D-------3333-6666-0000--
    
    Riff B: (once)
    A--5-55------2-22--------
    D-------4-44------0-0-0--
    
    Riff A: (4 times)
    Riff B: (once)
    
    Riff…
  • Intro
    
    C#, F#, G#
    C#, F#, G#
    C#, F#, G#
    C#, G#, F#,Bb
    
    Piano arranged for guitar
    |-----------------------|---------------------|
    |-----------------------|---------------------|
    |-10--------------------|---------------------|
    |----11-13-11-----------|-11-10-10-8-8-6-8-10-|
    |-11----------13--11-13-|---------------------|
    |-------------14--------|---------------------|
    
    
    |-----------------------|---------------------|
    |-----------------------|---------------------|
    |-10--------------------|---------------------|
    |----11-13-11-----------|-11-10-10-8-8-6-8-10-|
    |-11----------13--11-13-|---------------------|
    |-------------14--------|---------------------|
    
    
    |-----------------------|---------------------|
    |-----------------------|---------------------|
    |-10--------------------|---------------------|
    |----11-13-11-----------|-11-10-10-8-8-6-8-10-|
    |-11----------13--11-13-|---------------------|
    |-------------14--------|---------------------|
    
    
    |-----------------------|---------------------|
    |-----------------------|---------------------|
    |-10--------------------|---------------------|
    |----11-13-11-----------|-11-10-10-8-8-6-8-10-|
    |-11----------13--11-13-|---------------------|
    |-------------14--------|---------------------|
    
    
    |---------------------------|
    |---------------------------|
    |-10------------------------|
    |----11-13-11-11-10-8-10----|
    |-11------------------------|
    |---------------------------|
    
    
    
    |------------------------------------------------------------------------------|
    |------------------------------------------------------------------------------|
    |-11-9-7-----8-----------------8-----------------8-----------------8---8-------|
    |----------6---6-7-9-11-12---6---6-7-9-11-12---6---6-7-9-11-12---6---6---6---6-|
    |--------6-----------------6-----------------6-----------------6-----------6---|
    |------------------------------------------------------------------------------|…
  • Standard tuning.
    
    [0:00]              x4
    e||-----------------||
    B||-----------------||
    G||-o-------------o-||
    D||-o-------------o-||
    A||----5-5-5-5-4----||
    E||----3-3-3-3-3----||
    London's burning!  (x4)
    
    [0:43]
          G5…
  • Tuning = Drop D
    
    W/thick distortion
    ---------------------------------------------------------^--
    ----------------5----------------------------------------5--
    ----------------5----------------------------------------5--
    -0-2-2-0-2------5----0-2-2-0-2---2-2-2---0-2-2-0-2-------5--
    -0-2-2-0-2---0--5----0-2-2-0-2---2-2-2---0-2-2-0-2---0---5--
    -0-2-2-0-2---0-------0-2-2-0-2---2-2-2---0-2-2-0-2---0------…
  • Dropped D Tuning one step down (from low to high: Db-Ab-Db-Gb)
    
    Ab|-----------------------1-1-1---0-0-0----|
    Db|----0-0-0---3-3-3-----------------------| x2
    
    Ab|---------------1-----0------1------1------1-----1------|
    Db|---0-----3---------------------------------------------|
    
    Ab|---------------1-----0------1------1------3-----3------|
    Db|---0-----3---------------------------------------------|
    
    Ab|---------------1-----0------1------1------1-----1------|
    Db|---0-----3---------------------------------------------|
    
    Ab|---------------1-----0------1------1------3-----3------|
    Db|---0-----3---------------------------------------------|
    
    Ab|-----------------------1-1-1---0-0-0----|
    Db|----0-0-0---3-3-3-----------------------|
    
    Ab|---------------1-----0------1------1------1-----1------|
    Db|---0-----3---------------------------------------------|
    
    Ab|---------------1-----0------1------1------3-----3------|
    Db|---0-----3---------------------------------------------|
    
    Ab|---0--------0-------------4-------------7------------|
    Db|-----------------------------------------------------|
    
    (Guitar…
  • [0:15] Intro             3x
    eb|---|--------------------|-------------------|
    Bb|---|--------------------|-------------------|
    Gb|---|--------------------|-------------------|
    Db|-0-|2-2-2-2-2-2-2-0-0-0-|2-2-2-2-77777766666|
    Ab|-0-|2-2-2-2-2-2-2-0-0-0-|2-2-2-2-77777766666|
    Db|-0-|2-2-2-2-2-2-2-0-0-0-|2-2-2-2-77777766666|
    
    [0:30]…
  • *standard tuning* 
    E-----------------0-----------------------------------------------0--------
    B-----6--------------6------------1-----0 h1--------------------------0----
    G--7-----7--------------7------2-------------0 h2--------------------------
    D--8--------8--------------8--3-------------------3------0----2---------2-
    A--8-----------8---------------3-----3-----------------3-------------------
    E--6---------------------------1-----------------------------0-------------
    
    E-------------------------------------------------------------------0--------
    B----------0--------------0------------------0------------6------------6-----
    G-------------0--------------0------------------0------7-----7------------7--
    D--0h2-----------2-----2--------2---0h2------------0---8--------8-----------8
    A-------2--------------------------------2-------------8-----------8---------
    E-------------------0----------------------------------6---------------------
    
    E----------------------------------------------------------------------
    B-----1-----0-h2-------------------0-----------------------------0-----
    G--2-------------0-h2------0----------0-------------0------------------
    D--3------------------3---------2--------2---0-h2------2/42--------2--
    A--3-----3---------------3------------------------2--------------------
    E--1--------------------------0-------------------------------0--------
    
    E-----------------
    B-----------------…
  • Tablature explanation
    
    b   : bend
    s   : slide
    h   : hammer-on
    p   : pull-off
    x   : muffled string
    P.M.: palm mute
    
    Standard tuning
    
    [0:05]
    distortion on
    e|----------------------------|------------------------------|
    B|----------------------------|------------------------------|
    G|-----3----------------------|-----3------------------------|
    D|---3---2--4-5----5----5-5-5-|---3---2--4-5----5------5h6h5-|
    A|-1--------4-5--4---4--5-5-5-|-1--------4-5--4---4--4-------|
    E|----------2-3---------3-3-3-|----------2-3-----------------|
    
    |----------------------------|--------------|
    |----------------------------|--------------|
    |-----3----------------------|-----3--------|
    |---3---2--4-5----5----5-5-5-|---3---2--4-5-|
    |-1--------4-5--4---4--5-5-5-|-1--------4-5-|
    |----------2-3---------3-3-3-|----------2-3-|
    
    [0:25]…
  • ***rest for guitar (0:00 - 0:05)***
    
    Riff A: (7 times)
    G------------------------
    D------------------------
    A--3333------------------
    E--------3333-4444-1111--
    
    Riff B: (once)
    G------------------------
    D------------------------
    A--3333------------------
    E--------3333---43--43---
    
    Riff…
  • 0:00 Bass
       eI----------------------------------------------
       bI----------------------------------------------
       gI----------------------------------------------
       dI----------------------------------------------…
  • ##Dropped D Tuning##
    
    INTRO and Verses:
    
    -------------------------|
    -------------------------|
    -3-3-3-5-5-5-------------|
    -3-3-3-5-5-5-0-0-0-6-6-6-|
    -1-1-1-3-3-3-0-0-0-6-6-6-|
    -------------0-0-0-6-6-6-|
      Bb5   C5     D…
  • Tuning: From standard, tune the low E string down to a B.
     
    Verse:
    e--------------------------------------------------------------
    B--------------------------------------------------------------
    G--------------------------------------------------------------
    D--------------------------------------------------------------
    A-----------------------2----------------------2---------------
    B--0--0-0-2~-0--0--0-2b---0--0-0-2~-0--0--0-2b-----------------…
  • standard tuning
    
    *1/2 - Bend half of a step
    
    Verse w/clean tone, flanger and delay
    |-----------------------------19----|
    |--19^--17----17--------------------|
    |----------19----19---17--16-----16-|
    |-----------------------------------|
    |-----------------------------------|
    |-----------------------------------|…
  • Tuning = drop d
    
    Verse - clean
    e|------------------------------------------------------------------|
    B|---------------------1-----1--------------------------------------|
    G|-----10------10-------0-----0----10-------10------10------10------|
    D|-------10------10---0--0--0--0-----10-------10------10------10----|
    A|----8----8--8----8--------------8----10--8----8--8----8--8----8---|
    D|---0-------8-------2-----3-----8--------8-------8-------8---------|
    
    Chorus
    |---0--0-0-0-0--0-0-0-0--0-0-0-0--0-0-0---|
    |---0--0-0-0-0--0-0-0-0--0-0-0-0--0-0-0---|
    |---2--2-2-2-4--4-4-4-4--4-4-4-2--2-2-2---|
    |---2--2-2-2-4--4-4-4-5--5-5-5-3--3-3-3---|
    |---0--0-0-0-0--0-0-0-5--5-5-5-3--3-3-3---|
    |---------------------5--5-5-5-3--3-3-3---|
    
    Verse…
  • *TUNING*
    DROPPED-D
    
    *KEY*
    /-slide up
    -slide down
    PM-Palm Mute
    x-play muffled strings
    play rit.=ritard (play slower)
    
    **************************************************************************
     (clean)
    E|-----------------------------------|----------------------------------|
    B|-----------------------------------|----------------------------------|
    G|-/7-7-7----------------------------|-7-7-7----------------------------|
    D|-/5-5-5--10-10-10-10-0-3-3-3-4-4-4-|-5-5-5--10-10-10-10-0-3-3-3-4-4-4-|
    A|-/5-5-5--8--8--8--8--0-3-3-3-4-4-4-|-5-5-5--8--8--8--8--0-3-3-3-4-4-4-|
    D|---------8--8--8--8--0-3-3-3-4-4-4-|--------8--8--8--8--0-3-3-3-4-4-4-|…
  • Standard tuning
    
           Fm   G#sus
    
    e||----1----4--------------------------------------|| x2
    B||----1----4--------------------------------------||
    G||-o--1----6--------------------------------------||
    D||-o--3----6--------------------------------------||
    A||----3----4--------------------------------------||
    E||----1----4--------------------------------------||…
  • Dropped D tuning one half step down (from low to high:Db-Ab-Db-Gb-Bb-Eb), written chords are relative to a 
    Dropped-D
    
    
    [0:00]
    (sound of food packets ripping and spoken words:)
    I'll play something extraordinary
    
    (sound of…
  • Chord list:
       C   Dsus4add9  C2       G      Cm      G#     Fsus     Fm      D#      Dm      Cm
    e|-0-|  e|-0-|  e|-3-|  e|-3-|  e|-3-|  e|-4-|  e|-1-|  e|-1-|  e|-6-|  e|-5-|  e|-3-|
    B|-1-|  B|-3-|  B|-3-|  B|-3-|  B|-4-|…
  • G#       C          G#
    I fondle keys to my heart
         C          G#           C  G#  C
    when everyone's heart seemed so ca__lm
        G#            C          G#
    And you found the lock to my dorm
                   C           G#…
  • Standard Tuning
    
    Verse
    
         D5/A    A5      E5/B    C5/G G5
    |------------------------------------|
    |------------------------------------|
    |------------------------------------|  Repeat x4
    |----7-7-7-7-7-7-7-7-9-9-9-9-5-5-5-5-|
    |----5-5-5-5-7-7-7-7-7-7-7-7-3-3-5-5-|
    |----5-5-5-5-5-5-5-5-7-7-7-7-3-3-3-3-|
    
    Then…
  • Drop D Tuning:
    E  B  G  D  A  D
    1  2  3  4  5  6
    
    This tab is from the freakshow tab book, so im not guessing on anything...
    
    
    ------------------------------------------------------------------------------
    ------------------------------------------------------------------------------
    ----------------6--------------------6--------------------------2--0----------
    ----------0--------0-----------0--------0-----------------0-----------0-------
    -------7-----7--------7-----7-----7--------7-----------3-----3-----------3----
    ----7--------------------7--------------------7----3-------------------------…
  • Standard tuning
    Intro/Verse
    Electric guitar (clean tone)
           C5      	        D#5               B#5
    e||-------------------------------------------------------------------------|| x5
    B||-------------------------------------------------------------------------||
    G||-o--5-5-5-5-5-5-5-5--8-8-8-8-8-8-8-8---4-4-4-4-4-4-4-4-4-4-4-4-4-4-4-4-o-||
    D||-o--5-5-5-5-5-5-5-5--8-8-8-8-8-8-8-8---4-4-4-4-4-4-4-4-4-4-4-4-4-4-4-4-o-||
    A||----3-3-3-3-3-3-3-3--6-6-6-6-6-6-6-6---2-2-2-2-2-2-2-2-2-2-2-2-2-2-2-2---||
    E||-------------------------------------------------------------------------||
    
    Keyboard…
  • *TUNING* = Standard
    
    INTRO
    Daniel plays around with open strings
    then he plays this twice:
    E|--------------------------|
    B|--------------------------|
    G|----------------5-5-5-5-5-|
    D|----------------5-5-5-5-5-|
    A|----5-4--0------3-3-3-3-3-|
    E|--0--------3-0------------|
    
    E|-------------|
    B|-x--x--x--x--|
    G|-x--x--x--x--|…
  • Intro
    
    A:------4-----6--
    E:--1-1---4-4---- 
    
    Verse 
    
    E:--1-1---1-1---1-1--0-0-2-2-1-1---1-1--1-1--2-2-0-0--
    
    This comes in after about 10 seconds of drums.
    
    Chorus
    
    A:----------4-4-4-4-------------------------4-4-4-4-
    E:--1-1-1-1---------0-0-0-0-0-0-0-0-1-1-1-1---------0-0-0--0-0-0--…
  • intro
      C         D/A       Em
    |------------------------------------------|
    |-----1---------3-----------------0--------|
    |-------0---------2-----------------0------|
    |-2-2-----2-0-0-----0-4-4-5---2-2-----2----|
    |-3---------0---------2-----2--------------|
    |---------------------0--------------------|2x
    
    Same…
  • *TUNING* 1=C#       tempo=82
             2=G#
             3=G#
             4=C#
             5=G#
             6=C#
    
    C------4----5----7---0h7---7---54------4----5-----7------5---5-----0-
    G----5----7----9---9-----9---9--------5----7-----9----------5---------
    G------------------------------------------------------4---------4----
    C--0----0----0----------------------0-----0----0-----0----------------
    G---------------------------------------------------------------------
    C---------------------------------------------------------------------
    
    
    C------4----5----7---0h7---7---54------4----5-----7------5---5-----5-
    G----5----7----9---9-----9---9--------5----7-----9----------5---------
    G------------------------------------------------------4---------4----
    C--0----0----0----------------------0-----0----0-----0----------------
    G---------------------------------------------------------------------
    C---------------------------------------------------------------------
    
    C--------5--------5-----5---5-----5---------5--------5--5------5-------5--0-7-
    G--5-----------5-------------------------5---------------------------5------0-
    G-----4-----4--------4---------4------4----------4---------4-------4-----4--0-
    C--0------------------------0---------------------------0-------------------0-
    G-----------------------------------------------------------------------------
    C-----------------------------------------------------------------------------…
  • Tuning Note:
    
    D A D A B E
    
    Intro: Fig 1.
    
    e-----------------------------------------------------------------
    b---------------3-------------------------------3-------5---5-----
    a-----0---3-2---0---0---3---0---0-----0---3-0---0---0---3---3---0-
    d-2---2---2-2-------2---2---2---2--2--2---2-2-------2-----------2-
    a-0-----0-----0---0---0---0---0----0----0-----0---0---0---0---0---
    d-----------------------------------------------------------------
    
    Chorus:…
  • Dropped D Tuning (DADGBE)
    
    Intro  ~~~~~
    |----------------------------------|
    |----------------------------------|
    |--0-0-----------------------------|
    |------4-4-0-0---------------------|
    |------------------3---3---8---8---|
    |--------------0-0-3---3---8---8---|
    
    Chorus…
  • ***DROP D TUNING***
       
      ****MAIN VERSE RIFF********
    e:--------------------------------------------------------------|
    B:--------------------------------------------------------------|
    G:--------------------------------------------------------------|
    D:--------0-------------10------------9-------------------------|
    A:-----0------------10------10-----9----------------------------|
    D:--0--------0--10--------------9--------5--0--3--0-------------|…
  • intro
    e-------------------------||
    B---5--5------------------||
    G---5--5---5--5-----------||
    D---3--3---5--5-----------||
    A----------3--3-----------||
    E-------------------------||
    
    verse
    e----------------X--X--X--X---||
    B---5--5---------X--X--2--2---||
    G---5--5---5--5--X--X--2--2---||
    D---3--3---5--5--2--2--2--2---||
    A----------3--3--2--2--0--0---||
    E----------------0--0--X--X---||
    
    chorus
    e--------------------------X--X--X--X---||
    G--9--9--------9--9--------X--X--2--2---||
    B--9--9--9--9--9--9--9--9--X--X--2--2---||
    G--7--7--9--9--7--7--9--9--0--0--2--2---||
    D--------7--7--------7--7--2--2--X--2---||
    A--------------------------2--2--X--2---||
    E-----------------------------------0---||…
  • Intro
    E :| ---------------- |
    B :| ---------------- |
    G :|*7-77-77-77-77777*|
    D :|*x-xx-xx-xx-xxxxx*|
    A :| 5-55-55-55-55555 |
    D :| ---------------- |
    
    Pre-Verse Riff
    E :| ----------------|---------------- |
    B :| ----------------|----------------…
  • Drop D Tuning
    
    Fat Donuts Intro (play with some variation):
    e--3-1--0h1--------3-1--0--3-1—0h1-------0---------
    B--3-3------3------3-3--3--3-3-----3-----3---------
    G--2----------2----2-------2---------2---2---------
    D--0------------0--0-------0-----------0-0---------
    A--------------------------------------------------
    D--------------------------------------------------
    
    e--3-1--0h1--------3-1--0--3-1—0h1-------0---3-----
    B--3-3------3------3-3--3--3-3-----3-----3---3-----
    G--2----------2----2-------2---------2---2---0-----
    D--0------------0--0-------0-----------0-0---2-----
    A--------------------------------------------3-----
    D--------------------------------------------------
    
    For…
  • Tune your low E-string down to D. From low to high; D-A-D-G-B-e
    
    
    Tablature explanation 
    PM : Palm mute 
     : Harmonics 
    ~ : Let ring 
    x : Muffle string 
    
    
    Dm         F 
    Follow the tides
    Dm            Gm  F
    Drown in your headspin
    Dm…
  • Standard tuning
    Intro/verse (electric piano arranged for guitar)
    
    Played with variations.
    e||-----------------------------------||
    B||------3-----3---------6-----6------||
    G||--2-3---2-3---3-2-5-6---5-6---6-5--||
    D||-----------------------------------||
    A||--------0---------------6----------||
    E||--3---------------6----------------||
    A…
Наверх