Аккорды «Simon & Garfunkel»

Simon & Garfunkel
Пол и Арт познакомились в 1953 г., когда оба учились в нью-йоркской "Форрест Хиллз Хай Скул"; их дебютом на сцене были роли Белого Кролика и Чеширского Кота в инсценировке "Алисы в Стране Чудес" Л. Кэрролла. Два года спустя приятели приступили к совместному сочинению песен, причем подошли к делу очень серьезно - уже их первое сочинение "The Girl For Me" было зарегистрировано авторами в Библиотеке Конгресса США и получило копирайт. В ноябре 1957 г. под названием ТОМ… Читать полностью... Пол и Арт познакомились в 1953 г., когда оба учились в нью-йоркской "Форрест Хиллз Хай Скул"; их дебютом на сцене были роли Белого Кролика и Чеширского Кота в инсценировке "Алисы в Стране Чудес" Л. Кэрролла. Два года спустя приятели приступили к совместному сочинению песен, причем подошли к делу очень серьезно - уже их первое сочинение "The Girl For Me" было зарегистрировано авторами в Библиотеке Конгресса США и получило копирайт. В ноябре 1957 г. под названием ТОМ & JERRY дуэт выпустил песню "Hey Schoolgirl" (US-49), распроданную тиражом 120 тысяч копий. После завершения учебы Саймон поступил в Куинс Колледж, а Гэрфанкел - в Колумбийский университет на математический факультет. Попутно оба продолжали писать песни - материал Саймона исполняли Ричи Корделл и Дотти Дэниэл, а Гэрфанкел выпустил два соло-сингла под псевдонимом Арт Гэрр. В 1960 г. друзья снова решили работать вместе и четыре года спустя подписали контракт с фирмой "CBS/Columbia Records". Первый альбом дуэта, включавший мелодичные фолк-роковые песни, успеха не имел, равно как и первый сольник Саймона. В октябре 1965 г. продюсер дуэта Том Уилсон без разрешения авторов перемикшировал песню с дебютного альбома "The Sound Of Silence", наложив на фонограмму партии ударных, перкуссии и электрогитары. В таком виде композиция возглавила американские чарты (1 января 1966 г.), хотя и не стала сенсацией в Англии (к большому неудовольствию Саймона, который подолгу жил в Лондоне и считал Британию своей духовной родиной). Спешно переизданный первый альбом занял 30-е место в США, второй (в него вошла электрическая версия "The Sound Of Silence" и ряд заново записанных сольных композиций Саймона) - 21-е. В течение года SIMON & GARFUNKEL выпустили еще четыре хит-сингла, а песни дуэта тут же обрели множество кавер-версий - например, в Англии "The Sound Of Silence" заняла 3-е место в исполнении THE BACHELORS. В 1967 г. дуэт провел короткое турне по Англии, удачно выступил на Монтерейском рок-фестивале и выпустил отличный сингл "Fakin' Out" (US-23), навеянный творчеством Донована и THE BEATLES (би-сайд этого сингла "You Don't Know Where You Interest Lies" стал величайшим раритетом дуэта - песня ни разу не переиздавалась на альбомах и сборниках). Ну а 1968 г. стал годом триумфа SIMON & GARFUNKEL - их саундтрэк к фильму Майкла Николса "The Graduate" 6 апреля на 8 недель возглавил хит-парад (песня "Mrs. Robinson" вышла на 1-е место 1 июня). Дополнением к саундтрэку стал студийный альбом "Bookends", который 25 мая перенял у "The Graduate" эстафету лидерства. Наконец-то пришло признание и в Англии - саундтрэк занял там 3-е место, a "Mrs. Robinson" - 4-е, после чего дуэт выступил с аншлаговым концертом в лондонском Ройал Альберт-холле. К 1970 гг. SIMON & GARFUNKEL подготовили очень сильную работу "Bridge Over Troubled Water" (US-1, 7 марта 1970 г./UK-1, 21 февраля и 13 июня 1970 г.), которая стала своего рода эталоном для всех американских фолк-рокеров первой половины 70-х; такие композиции, как "Bridge Over Troubled Water" (US-1/UK-1), "Cecilia" (US-4) и "El Condor Pasa (If I Could)" (US-18), стали золотой классикой мировой поп-музыки. В записи легендарного альбома дуэту помогали гитарист Фред Картер, клавишник Ларри Кнехтель (BREAD), басист Джо Осборн и ударник Хэл Блэйн. Диск принес SIMON & GARFUNKEL 6 премий "Грэмми" в номинациях "Запись года", "Песня года", "Лучшая современная песня", "Лучшая аранжировка аккомпанемента", "Лучшая работа звукоинженера" и "Альбом года". В процессе записи альбома музыканты очень устали друг от друга, и дуэт прекратил существование. В дальнейшем SIMON & GARFUNKEL неоднократно воссоединялись - самым длительным периодом сотрудничества оказались 1981-1983 гг., когда дуэт записал двойной концертный альбом и провел большое турне. И все же Саймон и Гэрфанкел предпочитают теперь работать поодиночке. Основной автор дуэта Саймон записал ряд весьма интересных сольных альбомов, самым значительным из которых считается этно-роковый "Graceland" (UK-1/US-3). Сольная карьера Гэрфанкела менее выразительна - он записывает альбомы кавер-версий скорее для собственного удовольствия, чем для слушателей. 17 января 1990 г. дуэт был внесен в Зал Славы Рок-н-ролла - лучшее свидетельство того, что вклад SIMON & GARFUNKEL в развитие мировой поп-музыки огромен. Скрыть...
Популярные аккорды Simon & Garfunkel:
алфавиту | просмотрам | случайно
  • Capo on 7th fret.
    
    
    Intro:
     |  .  |  .  |  .   |  .  |  .  |  .   |  .  |  .  |  .     
    |---0--------------|---0--------------|-------------------|
    |------------3-----|------------3-----|---0---------------|
    |------0--------0--|------0--------0--|------0------------|
    |---------4--------|---------4--------|-------------------|
    |0-----------------|5-----------------|3-----------2------|
    |------------------|------------------|-------------------|
    
    
    Vers:…
  • G
    I'd rather be a sparrow than a snail
                                      Em
    Yes I would, if I could, I surely would
    Hmm-mmmmm
    
    Verse 2:
    I'd rather be a hammer than a nail
    Yes I would, if I only could, I surely would
    Hmm-mmmmm
    
    Bridge:…
  • It starts out like this:
    
    G[----------------------------------------------------------------
    D[--4-------2----4---------2-------4-----------------------------
    A[-----4--------------4------------------------------------------
    E[----------------------------------------------------------------
    
    That…
  • G         C               G
    A winter's day, in a deep and dark december;
    am D7  C   G am            hm     am               hm
    I am alone, gazing from my window to the streets below
         am             C                D
    On…
  • Note : the song should be played with a 12-string guitar with the
           Eb Ab Db Gb Bb eb tuning.
    
           The chords shown here refer to what's played on the guitar,
           regardless of the bass line.
    
    
       C
         >  .…
  • Intro: (and filler between verses)
    
      G	 C/G		G
    E -----H-------P--|----------------|
    B ----0-1---1---0-|--0-------0-----|
    G ----------------|------0-------0-|  Repeat several times...
    D ----0-2-----2-0-|----0-------0---|
    A…
  • Capo 4th fret
    
    
    9/8 Fmaj7   Cmaj7                Fmaj7    Cmaj7
    e-|--0--------------------------|--0--------------------------|
    B-|--1--------0-----------------|--1--------0-----------------|
    G-|--2--------0-----------------|--2--------0-----------------|
    D-|--3--------2-----------------|--3--------2-----------------|
    A-|-----------3-----------------|-----------3-----------------|
    E-|-----------------------------|-----------------------------|…
  • Capo Up Three Frets
    
          Introduction:                    D
    
    T----|-----------------|---2-------2------|---2-------2-----|----------------|
    -----|-----------------|-------3-------3--|-------2-------2-|----------------|
    A----|-------0-------0-|-----2-------2----|-----3-------3---|-------0-------0|
    -----|-----2-------0---|---0-----0--------|-0-------0-------|-----0-------0--|
    B----|-3-------2-------|-0----------------|-----------------|-2-------0------|
    -----|-----------------|------------------|-----------------|----------------|…
  • CHORUS:
     F                Bb          F
    Cecilia, you're breaking my heart
              Bb         F         C
    You're shaking my confidence daily
          Bb F        Bb         F 
    Oh Cecilia, I'm down on my knees…
  • Capo I
    
    4/4
    
                          Esus4              Bdim      E7       C7      D7
    |------------------|------------------|------------0-----|--0-------2-------|
    |------------------|--4-----4-4-4-4-0-|--3-3---3---------|--------------1---|
    |------------------|--4-----4-4-4-4-0-|--1-1---1-----1---|----3---0---2---2-|
    |------------------|--6-----6-6-6-6---|--3-3---3-------0-|------2---0-------|
    |------------------|------------------|--2---2-----------|--3---------------|
    |--------------0---|------------0-----|------------------|------------------|…
  • C         Bm            Am        G          F
    		Let us be lovers, we'll marry our fortunes together
    		C             Bm          Am
    		I've got some real-estate here in my bag
    		Em                     A              Em…
  • /slide
    
    e--0---9---7---0--5---7---4--------0---9---7---0--5---7---/12---7-----------
    B---------------------------------------------------------------------------
    G---------------------------------------------------------------------------
    D---------------------------------------------------------------------------
    A---------------------------------------------------------------------------
    E---------------------------------------------------------------------------
    
    e--0---9---7---0--5---7---4--------0---9---7---0--5---7---/12---7-----------
    B---------------------------------------------------------------------------
    G---------------------------------------------------------------------------
    D---------------------------------------------------------------------------
    A---------------------------------------------------------------------------
    E---------------------------------------------------------------------------
    
    e--0---9---7---0--5---7---4--------0---9---7---0--5---7---/12---7-----------
    B---------------------------------------------------------------------------
    G---------------------------------------------------------------------------
    D---------------------------------------------------------------------------
    A---------------------------------------------------------------------------
    E---------------------------------------------------------------------------
    
    e--0---9---7---0--5---7---4--------0---9---7---0--5---7---/12---7-----------
    B---------------------------------------------------------------------------
    G---------------------------------------------------------------------------
    D---------------------------------------------------------------------------
    A---------------------------------------------------------------------------
    E---------------------------------------------------------------------------
    
    e--0---9---7---0--5---7---4--------0---9---7---0--5---7---/12---7-----------
    B---------------------------------------------------------------------------
    G---------------------------------------------------------------------------
    D---------------------------------------------------------------------------
    A---------------------------------------------------------------------------
    E---------------------------------------------------------------------------
    
    e--0---9---7---0--5---7---4--------0---9---7---0--5---7---/12---7-----------
    B---------------------------------------------------------------------------
    G---------------------------------------------------------------------------
    D---------------------------------------------------------------------------
    A---------------------------------------------------------------------------
    E---------------------------------------------------------------------------
    
    End…
  • 4-----0--1--|-----0--1--|-----0--1--|-----0--1--|--0--------|
    C--3--------|--3--------|--3--------|--3--------|-----1-----|
    A-----0--2--|-----0--2--|-----0--2--|-----0--2--|--0-----0--|
    P--3--------|--3--------|--3--------|--3--------|-----2-----|
    O-----------|-----------|-----------|-----------|--------3--|
    4-----------|-----------|-----------|-----------|-----------|
    
    4-----0-----|-----------|-----------------|--0--------|-----------|
    C--1-----1--|--3--1-----|-----1-----3--1--|-----1-----|--1--------|
    A-----0-----|--------2--|-----------------|--0-----0--|-----------|
    P--2-----2--|--3--3-----|--3-----3--------|-----2-----|--2--------|
    O-----------|--------3--|-----------------|--------3--|-----------|
    4-----------|-----------|-----------------|-----------|-----------|
    
    4-----0--1--|-----0--1--|-----0--1--|-----0--1--|--0--------|
    C--3--------|--3--------|--3--------|--3--------|-----1-----|
    A-----0--2--|-----0--2--|-----0--2--|-----0--2--|--0-----0--|
    P--3--------|--3--------|--3--------|--3--------|-----2-----|
    O-----------|-----------|-----------|-----------|--------3--|
    4-----------|-----------|-----------|-----------|-----------|
    
    4-----0-----|-----------|-----------------|--0--------|-----------|
    C--1-----1--|--3--1-----|-----1-----3--1--|-----1-----|--------1--|
    A-----0-----|--------2--|-----------------|--0--------|-----0-----|
    P--2-----2--|--3--3-----|--3-----3--------|-----2-----|--2-----2--|
    O-----------|--------3--|-----------------|-----------|-----3-----|
    4-----------|-----------|-----------------|-----------|--3--------|
    
    Repeat…
  • C       G/B     Am7(4)  G
    x32010  x2003x  x0001x  3x000x
    
    And the tab is like this... (The tab isn't the same through the _entire_
    song, but it's close to this.)
    
    
      C           G/B          Am7(4)    G
    E ------0-----------------|------------------------|
    B…
  • G                                 C    D7        G
    Last night I had the strangest dream I ever dreamed before
      D                     G    e        C      D7     G
    I dreamed the world had all agreed to put an end to war.…
  • THE CHORDS:
    
    D5:  xx0235
    G5: xx0033
    D: 200232
    G: xx0033
    Cmaj7: x32000
    A: x02220
    
    THE PICKING PATTERN:
    
    B-2-(3+1)-2-B-2-(3+1)-2
    
    Where B is the lowest bass note, as indicated in the above chord charts.
    (3+1) indicates that…
  • Capo up 5 frets for recorded key.
     play with fingers
    
           C| . | . | . | .  Dm                         *fill 1*  C
    T-----|---0---0---0---0-|---1---1---1---1-|---1---1---------|---0---0---0---0-|
    ------|---1---1---1---1-|---3---3---3---3-|---3---3---------|---1---1---1---1-|
    A-----|---0---0---0---0-|---2---2---2---2-|---2---2---------|---0---0---0---0-|
    ------|-----------------|-0-------0-------|-0-------0h20----|-----------------|
    B-----|-3-------3-------|-----0-------0---|-----0--------3-0|-3-------3-------|
    ------|-----3-------3---|-----------------|-----------------|-----3-------3---|…
  • C                                             Am
    I am just a poor boy though my story's seldom told
    G
    I have squandered my resistance
         F                                C
    For a pocket full of mumbles, such are promises…
  • Intro : G  F  C
    
    		G(D)
    		I'm sittin in a railway station
    		      F#(D)                    F(D)  E
    		Got a ticket for my destination
    		Am
    		On a tour of one night stands
    		   F
    		My suitcase and guitar in hand
    		    C
    		And…
  • Capo 1
    
    Chords are :G1(355433) D7(xx0212) D9(xx0210)A7(x02020) B7(x21202)
                E9(020102) E7(020100) Gm(355333) Gmaj7(320002)
                B7sus(xx2202) Fdim(xx0101) E9maj(020101)
    
    
    Intro: D D9 G A7 Fdim D G A7 D G…
  • Capo 3
    
    Ddim(xx0101)
    
    G           G    C       Em      Am7               B    B7 C
     Here is my Song For The Asking. Ask me and I will play so sweetly,
         G               D7 G
    I'll make you smile.
    
    G           G    C…
  • Cl[D]oudy,
    The sky is grey and white and clou[G]dy.
    Sometimes I think it's hanging d[D]own[F#7] on m[Ddim]e.
    I[A]t's hitch-hike a hundred m[F#7]iles.
    I'm a [A]rag-a-muffin c[Bm]hild.
    P[E]ointed finger, painted smile.
    I le[A]ft…
  • Capo 9th Fret!!
    --------------
    
    Intro:
    ------
        G                 D/F#              C                 G/C
    e:|-----------------|-2---------------|-------3---------|-----------------|
    B:|-0-----0---0-----|-------3---3-----|-0h1-------1-----|-----0h1---0-----|
    G:|-------0---------|------(2)--------|-----0-------0---|-----------------|
    D:|-----0-------0---|-----0-------0---|---------2-------|-----0h2-----0---|
    A:|-----------------|-----------------|-3---------------|-----------------|
    E:|-3-------3-------|-2-------2-------|-----------------|-3-------3-------|…
  • All strings down half a tone to match the recording.
    
    Verse 1
    ----- -
      D(sort of)
      , . , . , . , .   , . , . , . , .   , . , . , . , .   , . , . , . , .
    |---5---------5---|---0---------0---|---5---------5---|---0---------0---|
    |---------3-------|---------3-------|---------3-------|---------3-------|
    |-----0-----0---0-|-----0-----0---0-|-----0-----0---0-|-----0-----0---0-|
    |-------4---------|-------4---------|-------4---------|-------4---------|
    |-5-----------5---|-5-----------5---|-5-----------5---|-5-----------5---|
    |-----------------|-----------------|-----------------|-----------------|…
  • Amaj7
    e-|-----4-----------4--------|-----4-----------4--------|
    B-|-----------2-----------2--|-----------2-----------2--|
    G-|--------2-----2-----2-----|--------2-----2-----------|
    D-|--------------------------|--------------------------|
    A-|--0-----------------------|--0-----------------0-----|
    E-|--------------------------|--------------------------|…
  • Capo II
    half note = 86
    4/4
    
       C                   F       C          G       C          G
    |--0-------0-------||--1---------------|------------------|------------------|
    |--1-------1-------||--1-------1-------|--0-------1-------|--0-----------0---|
    |--0-------0-------||.-2-------0-------|--0-------0-------|--0-------0-------|
    |------------------||.-3-------2-------|------0-------0---|------0-----------|
    |------3-------3---||----------3-------|----------3-------|------------------|
    |------------------||------------------|--3---------------|--3---------------|…
  • Asus2                    G
    Hello darkness, my old friend
                               Asus2
    I've come to talk with you again
                       Dm       C         
    Because a vision softly creeping…
Наверх