Аккорды «Simple Plan»

Simple Plan
Simple Plan - это канадская поп-панк группа, образовавшаяся в Монреалe, провинции Квебек. На данный момент группа выпустила четыре студийных альбома: "No Pads, No Helmets... Just Balls" (2002) , "Still Not Getting Any..." (2004), "Simple Plan" (2008), "Get Your Heart On!" (2011), а также три концертных альбома: "Live in Japan 2002" (2003), "Live in Anaheim" (2004) и "MTV Hard Rock Live" (2005). Все пятеро участников группы - франко-канадцы и родились в провинции Квебек. Simple Plan - это любимцы… Читать полностью... Simple Plan - это канадская поп-панк группа, образовавшаяся в Монреалe, провинции Квебек. На данный момент группа выпустила четыре студийных альбома: "No Pads, No Helmets... Just Balls" (2002) , "Still Not Getting Any..." (2004), "Simple Plan" (2008), "Get Your Heart On!" (2011), а также три концертных альбома: "Live in Japan 2002" (2003), "Live in Anaheim" (2004) и "MTV Hard Rock Live" (2005). Все пятеро участников группы - франко-канадцы и родились в провинции Квебек. Simple Plan - это любимцы североамериканского континента, продавшие почти 2 миллиона копий альбома "No Pads, No Helmets... Just Balls", который занимал 35-ю позицию в Billboard Top – 200, выступавшие на одной сцене со всевозможными группами от Rancid до Aerosmith, три раза участвовавшие в Warped Tour, причём два раза они были хедлайнерами этого тура, и, наконец, 4 раза номинировавшиеся на MTV Video Music Awards, что совсем неплохо для группы, которая начинала гастролировать на отцовском трейлере. В середине девяностых, в возрасте 13 лет, Пьер и Чарльз образовали в своём родном Монреале группу RESET, выпустившую в 1997 альбом, пользовавшийся популярностью в Канаде. Спустя некоторое время Чарльз был вынужден покинуть группу, чтобы закончить обучение в школе. По окончании школы он опять вернулся в музыку - основал новую группу со своими новыми друзьями - Себастьяном и Джеффом. Пьер перешёл в новую группу Чарльзa, перетащив с собой туда же и басиста RESET - Дэвидa: так была основана группа Simple Plan. Уже в 2002 году вышел первый альбом группы – "No Pads, No Helmets... Just Balls", в записи которого принимали участие такие известные музыканты, как Joel Madden (Good Charlotte) и Mark Hoppus (Blink-182). Альбом стал очень популярным, но группа не стала «почивать на лаврах» - и в 2004 году вышел их второй альбом - "Still Not Getting Any..." (2004): «Песни о машинах и вечеринках - не совсем моё, - объясняет Чарльз, - Меня надо немного растрясти, чтобы всё это мне понравилось. А писать "Still Not Getting Any..." - это было совсем другое. Там каждая песня выражает моё теперешнее состояние души». Но, несмотря на то, что "Still Not Getting Any..." - альбом очень "слаженный" и "целиковый", писался он не так-то уж и легко. После того, как Simple Plan в феврале 2004 года отыграли свой первый Warped Tour в качестве хедлайнеров с MxPx, Чарльз и Пьер сели за написание нового альбома. Целых три месяца они сочиняли, записывали и выбрасывали песни. Пьер: «"Perfect World" была первой по-настоящему хорошей песней, после которой качественные мелодии и тексты повалились градом!» Bob Rock (Metallica, Bon Jovi) согласился помочь записать новый альбом, но при одном условии: Simple Plan не должны были делать основной акцент при записи пластинки на панк. Панк – стиль ведь сам по себе до абсурда напичкан всякими правилами, как это ни парадоксально. «Первая пластинка должна была быть по-настоящему панковской, - объясняет Чарльз, - при записи же "Still Not Getting Any..." мы не думали об этом. Мы просто делали хорошие песни». Пьер: «Почему ты должен как художник ставить себе какие-либо ограничения? Представь, что ты художник: выберешь ли ты только 4-5 цветов, или же всю палитру, чтобы нарисовать потрясающую картину?» И действительно, альбом "Still Not Getting Any..." не назовёшь панковским, зато есть некоторые детали, которые компенсируют этот "недостаток": появились очень интересные ударные элементы - как в "Perfect World", действительно серьёзные, даже несколько философские тексты - как в "Untitled". Однако остаётся одна вещь, которая не изменилась несмотря на новую стилистику альбома: «Главное для нас - поклонники и общение с ними. Они именно те, для кого мы живём и работаем, - говорит Джефф, - Если бы не они, я, скорее всего, работал бы сейчас на какой-нибудь "стандартной" работе с девяти до пяти, которую я так ненавижу!» Достижения: Альбом "No Pads, No Helmets... Just Balls", занимал 35 позицию в Billboard Top — 200. Альбом "No Pads, No Helmets... Just Balls" был продан количеством почти 2-х миллионов копий. 3 раза участвовали в Warped Tour, 2 раза в качестве хедлайнеров. В 2004 году группа принимала участие в съёмках фильма «Минутка в Нью-Йорке». Состав: Джефф Стинко (Jeff Stinco) - соло-гитара Дэвид Дезрозиерc (David Desrosiers) - бас-гитара, бэк-вокал Пьер Бувье (Pierre Bouvier) - вокал Себаcтьян Лефебр (Sebastien Lefebvre) - гитара, бэк-вокал Чарльз Комо (Charles Como) - барабаны Скрыть...
Популярные аккорды Simple Plan:
алфавиту | просмотрам | случайно
  • start playing at 0:26...
    
    Verse 1 ((chorus))  
    F#--------------------------------------------------------|
    C#--------------------------------------------------------|
    G#-5-5-5-----------------------5-5-5----------------------|
    Eb--------3-3-3--5-5-5--5-5-5---------3-3-3--5-5-5--3-3-3-|
    
    2nd…
  • tuning: drop down one note for each string
    
    ~ means rest
    
    |-----------------------------------------|
    |-----4--7------6--9----------------------|
    |--5---------7----------0---0-0-0-0-0-0---|
    |-----------------------------------------|…
  • Intro/Verse
    
    G-----------------------------------------|
    D--------------------------------4-----3--|    Intro 2X,  
    A--2---2---4---5--0--5--0-----4------3----|     
    E----2----------------------3-------2-----|
    
    
    G-----------------------------------------|
    D--------------------------------4-----3--|…
  • Tuning : Down 1/2 step (D#-G#-C#-F#-A#-D#) 
    	 (Not Drop-D!!!)
    
    [Intro]  
    
     (Guitar1) - Harmonic -
    d#|----10--15-14-10----10---15-14-10-----10---15-14-10-----10---15-14-10------|
    A#|-10---10----------10---10-----------10---10-----------10---10---------(10~)|
    F#|---------------------------------------------------------------------------|…
  • e{-------------------------------------------------------------------
    B{-------------------------------------------------------------------
    G{-------------------------------------------------------------------
    D{-----7---6---7-------7---6---7------6-7---6---7------6-7---6---6h7-
    A{---7---7---7---7---7---7---7---7--5-----5---5---5--7-----7---7-----
    E{-5---------------5-------------------------------------------------
    
    e{-----------------------------------------
    B{-----------------------------------------
    G{-18--19--21--14-/-18--16-/-18--16------
    D{-----------------------------------------
    A{-16--17--19--12-/-16--14-/-16--14------
    E{-----------------------------------------
    
    here's…
  • Intro
    G|---------------------------------------------------------------------------|
    D|---------------------------------------------------------------------------|
    A|4444444444-------44-444-4-------44-444-4-------4-44------------------------|
    E|-----------22-44----------22-44----------22-44------444444-----------------|
    
    Verse
    G|---------------------------------------------------------------------------|
    D|---------------------------------------------------------------------------|
    A|444444444444444----------------------X2-----4------------------------------|
    E|----------------2222222222-444444444---------4--1-22222222-4---------------|
    Cont.
    G|---------------------------------------------------------------------------|
    D|---------------------------------------------------------------------------|
    A|---------------------------------------------------------------------------|
    E|1-22222222-4---------------------------------------------------------------|
    Chorus
    G|---------------------------------------------------------------------------|
    D|---------------------------------------------------------------------------|
    A|4444----------------4444--------4444---------------------4---4-------------|
    E|-----4444-2222-4444------2222-4------4444-2222-4444-2222-------------------|
    Bridge
    G|---------------------------------------------------------------------------|
    D|---------------------------------------------------------------------------|
    A|4----4----4444444-----------------4----------------------------------------|
    E|--4-2--4-2--------4444444-2222222---4-2------------------------------------|…
  • C#
    Do you ever feel like breaking down?
            Bm
    Do you ever feel out of place?
          F#
    Like somehow you just don't belong
        G#
    And no one understands you
    Do you ever wanna runaway?
    Do you lock yourself in your room?
    With…
  • tuning- standard
    Guitar 1=lead=Jeff
    Guitar 2=rhythm=Seb
    
    intro/fill (clean)  guitar 1
    e--0---0-000--3-1-0-1----13-12--13-12--|
    b-----------------------------13-----13|
    g--------------------------------------|
    d--------------------------------------|
    a--------------------------------------|
    e--------------------------------------|
    repeat…
  • standard tuning (eadgbe)
    
            intro 1
    e-----------------------
    b----------------------- 
    g-5--6-6--5--6--5-5--3-3    
    d-5--6-6--5--6--5-5--3-3    
    a-3--4-4--3--4--3-3--1-1    
    E-----------------------
    
            intro…
  • ---------2-0--------------2-0-------------------2-0--------------2-0----------
    ---------3----------------3---------------------3----------------3------------
    ------------------------------------------------------------------------------
    ----------------------------------------0---0-0-----0-------------------------
    -0/5-5-5-----5--------0-0-----0-----0-2---2------------------0-0-----0-----0--
    ---------------3-3--3-----------3-3-------------------3-3--3-----------3-3----
    intro…
  • Capo 5 fret
    
    Intro: 
     G  
    (Oh, Oh) 
     D  
    (Take me back, take me back) 
     
    (Oh yeah) 
     Em                        C  
    (Back to summer paradise) 
      
    Verse 1: 
       G  
    My heart is sinking 
     D              Em  
    As…
  • tune down 1/2 step
    x=mute w/fretting hand
    
    intro:
    eb-----------------------------------------------------------------------------
    Bb-----------------------------------------------------------------------------
    Gb----2-2-2-6-4---4-2-4---4-2-4-6-4-2-4-6---------6-4--------------------------
    Db-2--2-2-2-6-4-2-4-2-4-2-4-2-4-6-4-2-4-6-6-7-7-7-6-4-2------------------------
    Ab-2--0-0-0-4-2-2-2-0-2-2-2-0-2-4-2-0-2-4-6-7-7-7-4-2-2------------------------
    Eb-0------------0-------0-----------------4-5-5-5-----0------------------------
    
    pre-chorus:
    eb-----------------------------------------------------------------------------
    Bb-----------------------------------------------------------------------------
    Gb-xxxxxx-------4-22222-4-------4-22222-4--------------------2222222222222222--
    Db-xxxxxx-22222-4-22222-4-22222-4-22222-4--22222222-44444444-2222222222222222--
    Ab-xxxxxx-22222-2-00000-2-22222-2-00000-2--22222222-44444444-0000000000000000--
    Eb--------00000-----------00000------------00000000-22222222-------------------
    
    chorus:
    eb-----------------------------------------------------------------------------
    Bb-----------------------------------------------------------------------------
    Gb----44-----------------4444----------22222222-44444444-----------------------
    Db-22-44-77-7676----2222-4444-44444444-22222222-44444444-----------------------
    Ab-22-22-77-7676-x2-2222-2222-44444444-00000000-22222222-----------------------
    Eb-00----55-5454----0000------22222222-----------------------------------------
    
    pre-verse:
    eb-----------------------------------------------------------------------------
    Bb-----------------------------------------------------------------------------
    Gb---4-2-4---4-2-4-------------------------------------------------------------
    Db-2-4-2-4-2-4-2-4-2-----------------------------------------------------------
    Ab-2-2-0-2-2-2-0-2-2-----------------------------------------------------------
    Eb-0-------0-------0-----------------------------------------------------------
    
    pre-chorus
    
    chorus
    
    bridge:
    eb-----------------------------------------------------------------------------
    Bb-----------------------------------------------------------------------------
    Gb----44-66--------------------------------------------------------------------
    Db-22-44-66-77-9---------------------------------------------------------------
    Ab-22-22-44-77-9---------------------------------------------------------------
    Eb-00-------55-7---------------------------------------------------------------
    
    chorus:
    eb-----------------------------------------------------------------------------
    Bb-----------------------------------------------------------------------------
    Gb----44-----------------4444----------22222222-44444444-----------------------
    Db-22-44-77-7676----2222-4444-44444444-22222222-44444444-----------------------
    Ab-22-22-77-7676-x2-2222-2222-44444444-00000000-22222222-----------------------
    Eb-00----55-5454----0000------22222222-----------------------------------------
    
    eb-----------------------------------------------------------------------------
    Bb-----------------------------------------------------------------------------
    Gb----44-----------------4444----------2--2-4444444444444444-------------------
    Db-22-44-77-7676----2222-4444-44444444-2--2-4444444444444444-------------------
    Ab-22-22-77-7676-x2-2222-2222-44444444-0--0-2222222222222222-------------------
    Eb-00----55-5454----0000------22222222-----------------------------------------
    
    outro:
    eb-----------------------------------------------------------------------------
    Bb-----------------------------------------------------------------------------
    Gb---4-2-4---4-2-4---4-2-4---4-2-----------------------------------------------
    Db-2-4-2-4-2-4-2-4-2-4-2-4-2-4-2-----------------------------------------------
    Ab-2-2-0-2-2-2-0-2-2-2-0-2-2-2-0-----------------------------------------------
    Eb-0-------0-------0-------0---------------------------------------------------…
  • Tuning: Standard
    
    INTRO:
    e---------------|---------------|---------------|---------------|
    B---------------|---------------|---------------|---------------|
    G---------------|---------------|-1-1-1-1-1-1-1-|-1-1-1-1-1-1-1-|
    D-8-8-8-9-9-9-9-|-8-8-8-9-9-9-9-|-1-1-1-2-2-2-2-|-1-1-1-2-2-2-2-|
    A-9-9-9-9-9-9-9-|-9-9-9-9-9-9-9-|-2-2-2-2-2-2-2-|-2-2-2-2-2-2-2-|
    E-7-7-7-7-7-7-7-|-7-7-7-7-7-7-7-|---------------|---------------|
    
    e---------------|---------------|---------------|---------------|
    B---------------|---------------|---------------|---------------|
    G---------------|---------------|-1-1-1-1-1-1-1-|-1-1-1-1-1-1-1-|
    D-8-8-8-9-9-9-9-|-8-8-8-9-9-9-9-|-1-1-1-2-2-2-2-|-1-1-1-2-2-2-2-|
    A-9-9-9-9-9-9-9-|-9-9-9-9-9-9-9-|-2-2-2-2-2-2-2-|-2-2-2-2-2-2-2-|
    E-7-7-7-7-7-7-7-|-7-7-7-7-7-7-7-|---------------|---------------|
    
    Verse:
    *continue…
  • F#
    Whats new scooby doo?
                       G#
    we're coming after you
                   C#           D#
    you're gonna solve that mystery
                      F#
    i see you scooby doo
                             G#
    the trail leads back…
  • Intro
    Guitar 
    
    1
    Guitar 1:
    E|-------------------------------------------------------|
    B|-------------------------------------------------------|
    G|-44------44-66------44-66-44446666-444444446~----------|
    D|-44------22-44--x2--22-44-44444444-222222224~----------|
    A|-22------22-44------22-44-22224444-222222224~----------|
    D|---------22-44------22-44-----4444-222222224~----------|
    Chorus
    Guitar…
  • Intro:
    G|---------------------------------------------------------
    D|---------------------------------------------------------    
    A|2222222--------------------------------------------------
    E|---------22222222----------------------------------------
    
    Verse:
    G|---------------------------------------------------------
    D|---------------------------------------------------------…
  • tuning: standard
    
    --------------------------------------------------------------------------
    --------------------------------------------------------------------------
    --------------------------------------------------------------------------
    --66-6-66-8-10-66-6-66-8-10-66-6-66-8-10-88-8-88-6-5--------------------x2
    --------------------------------------------------------------------------
    --------------------------------------------------------------------------
    
    --------------------------------------------------------------------------
    --------------------------------------------------------------------------
    --66-6-66-8-10-66-6-66-8-10-66-6-66-8-10-88-8-88-6-5----------------------
    --66-6-66-8-10-66-6-66-8-10-66-6-66-8-10-88-8-88-6-5--------------------x2
    --44-4-44-6-8--44-4-44-6-8--44-4-44-6-8--66-6-66-4-3----------------------
    --------------------------------------------------------------------------…
  • INTRO~
    
    e------0-----5----0-----5----------1---------0--------1-------------------|
    b------------------------0---0--------------------------------------------|
    g-------------------------------------------------------------------------|
    d-------------------------------------------------------------------------|
    a-------------------------------------------------------------------------|
    E-------------------------------------------------------------------------|
    
    VERSE
    e-------------------------------------------------------------------------|
    b-------------------------------------------------------------------------|
    g-------------------------------------------------------------------------|
    d---------9-------9-------------------------------------------------------|
    a--------7--------7---------9---9-------------7-----7-----8----8----------|
    E--------------------------7-----7-------------5-----5----6-----6---------|…
  • intro:the whole songs in muted power chords
    e--------------------
    b--------------------
    g--2---4-------5-5-5-
    d--2-2-4-2-----5-5-5-
    a----2---2-5-5-------
    e----------5-5-------
    
    Verses
    e--------------------
    b--------------------
    g-2-2-2-2-2----------
    d-2-2-2-2-2-2-2-2-2-2…
Наверх