Аккорды Синдром Восьмиклассника - Чем-то большим

Добавлено: @romashka
Дата добавления: 03 Июля 2022г.
Рейтинг:
0.0
Просмотров: 83
Транспонировать - +
[Проигрыш]:
3:---1--------1-----------------------
4:--2--------2----------1-------1---1-
5:-0--------0----------2-------2-2-2-2
6:--------------------0-------0---0---

Куплеты:
3:---1---1---1---1-
4:--2-2-2-2-2-2-2-2
5:-0---0---0---0---

Это всё никогда не закончится
И ничего никогда не изменится

4:---1---1---1---1-
5:--2-2-2-2-2-2-2-2
6:-0---0---0---0---

И боль никогда не покинет нас
Что же ты чувствуешь прямо сейчас?

3:---1---1---1---1-
4:--2-2-2-2-2-2-2-2
5:-0---0---0---0---

Реальность ломает меня
Похоже я просто схожу с ума

4:---1---1---1---1-
5:--2-2-2-2-2-2-2-2
6:-0---0---0---0---

Пью свою кровь, пью свою кровь
Я знаю вам всем это нравится



[Припев]: (играем те же самые табы приглушая ненужные струны боем ↓ ↓↓↑ ↑↓↑↓, 
а начиная с "Это всё никогда не закончится"
Играем быстро шестерку, в конце припева можно быстро играть ↓↑↓↑↓↑↓↑)

Просто смотри мне в глаза
Я всё ещё тот же придурок
Всё также смотрю в никуда
Дым вьёт мои лёгкие горло сжигая
Я не хочу возвращаться туда
Туда где мне будет чуть лучше
Туда где реальность мой враг
Это всё никогда не закончится
И ничего никогда не изменится
И боль никогда не покинет нас
Что же ты чувствуешь прямо сейчас?
Это всё никогда не закончится
И ничего никогда не изменится
И боль никогда не покинет нас
Что же ты чувствуешь прямо сейчас?

[Проигрыш]:
3:---1--------1-----------------------
4:--2--------2----------1-------1---1-
5:-0--------0----------2-------2-2-2-2
6:--------------------0-------0---0---

Куплеты:
3:---1---1---1---1-
4:--2-2-2-2-2-2-2-2
5:-0---0---0---0---

Боль никогда не оставит меня
Я ненавижу всех вас

4:---1---1---1---1-
5:--2-2-2-2-2-2-2-2
6:-0---0---0---0---

И я ненавижу себя
Я ненавижу всё что я вижу



[Припев]: (играем те же самые табы приглушая ненужные струны боем ↓ ↓↓↑ ↑↓↑↓, 
а начиная с "Чем тем кем являюсь сейчас"
Играем быстро шестерку, в конце припева можно быстро играть ↓↑↓↑↓↑↓↑)

Боль никогда не оставит меня
Я выгляжу так будто я уже умер
Полюбит меня пустота
Я бы хотел стать ещё чем-то большим
Чем тем кем являюсь сейчас
Чем тем кем являюсь сейчас
Я бы хотел стать ещё чем-то большим
Хотя бы ещё один раз 

Капо на 3-м ладу.
Без капо звук будет другой!
Табы без капо:

3:---4--------4-----------------------
4:--5--------5----------4-------4---4-
5:-3--------3----------5-------5-5-5-5
6:--------------------3-------3---3--- 
Наверх