Аккорды «Six Feet Under»

Six Feet Under
Six Feet Under поначалу имела статус стороннего проекта вокалиста Криса Барнса из Cannibal Corpse и гитариста Аллена Веста из Obituary. В 1995 году с экс-басистом Death Терри Батлером и барабанщиком Грегом Голлом они записали альбом Haunted. Поскольку состав не мог вызвать никаких подозрений, коллективу без труда удалось не только заключить контракт с Metal Blade, но и заполучить в своё распоряжение студию Morrisound и продюсеров Брайана Слэджела и Скотта Бернса. Дебютник содержал традиционный дэт-набор… Читать полностью... Six Feet Under поначалу имела статус стороннего проекта вокалиста Криса Барнса из Cannibal Corpse и гитариста Аллена Веста из Obituary. В 1995 году с экс-басистом Death Терри Батлером и барабанщиком Грегом Голлом они записали альбом Haunted. Поскольку состав не мог вызвать никаких подозрений, коллективу без труда удалось не только заключить контракт с Metal Blade, но и заполучить в своё распоряжение студию Morrisound и продюсеров Брайана Слэджела и Скотта Бернса. Дебютник содержал традиционный дэт-набор из брутальных риффов и «замогильных» текстов, но отличался от опусов Cannibal Corpse некоторой замедленностью темпа. Благодаря туру в поддержку пластинки тиражи её достигли 35000 экземпляров. Некоторые вещи, записанные во время гастролей, попали на мини-альбом Alive and Dead, вышедший в 1996-м. Этот релиз также содержал парочку новых треков и кавер-версию Grinder Judas Priest. Между тем, отношения в первой команде Барнса накалились до предела, в результате чего тот расстался со своими коллегами-«каннибалами» и полностью посвятил себя новому проекту. Серьёзной студийной работой музыканты смогли заняться лишь в 1997 году, поскольку Вест был задействован на сессиях с Obituary. Спустя некоторое время после выхода Warpath Аллен всё-таки расстался с Six Feet Under, а его место занял Стив Суонсон из другой дэтовой банды, Massacre. Появление нового гитариста благополучно отразилось на качестве продукции SFU, и следующий альбом получил очень хорошие отклики в металических кругах. Maximum Violence содержал такие полюбившиеся фанам вещи как No Warning Shot и Torture Killer, а тираж диска превысил стотысячный рубеж. В качестве промоушена последовало успешное турне в компании с Danzig, а также участие команды в 2000 Vans Warped Tour. Если на Maximum Violence присутствовала лишь одна чужая композиция (War Machine от Kiss), то в 2000 году команда решила записать целый альбом каверов, Graveyard Classics, куда вошли композиции таких коллективов как Scorpions, AC/DC, Black Sabbath, Exodus, Savatage, Venom, Accept, Angel Witch, Deep Purple,Sex Pistols, Dead Kennedys, Джими Хендрикса. В следующем году Six Feet Under ещё больше удивили публику, позвав в качестве гостя на один из треков нового альбома рэппера Айс-Ти. Также на True Carnage впервые прозвучал смешанный дэт-дуэт Криса Барнса и Карин Крайзис из Crisis. Работа имела коммерческий успех в Европе, попав в чарты в Германии и Австрии. Почти весь 2002 год команда провела на североамериканских и европейских гастролях, катаясь в компании с различными бандами, такими как Skinless, Marduk, Kataklysm и др. Когда музыканты вновь собрались в студии, им удалось записать один из самых успешных своих альбомов. Bringer of Blood включал в себя не только убойный заглавный трек, но и такие вещи, ставшие концертными фаворитами, как Amerika the Brutal, Murdered in the Basement и When Skin Turns Blue. На следующий год Six Feet Under вновь занялись каверизацией, но на этот раз довольно своеобразно — под маркой Graveyard Classics 2 они перезаписали весь альбом AC/DC Back in Black. Весной 2005-го на свет появился новый студийник («13») с оригинальным материалом, ограниченное издание которого сопровождалось бонусным диском Live San Francisco 2002. Осенью того же года вышел бокс-сет A Decade in the Grave (4 CD + 1 DVD), в которые вошли лучшие треки, а также демо и концертные записи. Сделав небольшой перерыв, Six Feet Under вернулись к концертной деятельности, а весной 2007-го выпустили очередной альбом, Commandment. 24 декабря 2007 года группа на своём веб-сайте объявила, что в начале 2008 года отправится в студию для записи нового, восьмого по счёту, студийного альбома.Альбом Death Rituals был выпущен 11 ноября 2008 года. 1 февраля 2011 года Крис Барнс на официальном сайте SFU объявил о том, что басист Терри Батлер и барабанщик Грег Голл покинули группу. Крис пишет: Наши давние друзья и сотрудники Терри Батлер и Грег Голл приняли решение отделиться от SFU. Стив Суонсон и я благодарны им за весело проведённые вместе годы и желаем удачи на их музыкальном пути. … Я гарантирую всем фанатам SFU, что группа в новом составе будет дэт-металической силой, пополненной долгожданным чертовски брутальным барабанщиком, с риффами, способными разорвать вас на части, и вокалом а-ля 1993—1995 годы. Уже 3 февраля Крис Барнс сообщил о присоединении к SFU барабанщика Кевина Толли (Dååth, Decrepit Birth, Dying Fetus, Chimaira), а 27 февраля — о новом, втором гитаристе, Робе Арнолде (Chimaira). 14 февраля 2012 года на официальном сайте появилась долгожданная новость: состав SFU пополнил басист, достойный заменить Батлера. Этим музыкантом стал басист-виртуоз Джефф Хьюэлл (Brain Drill, Vile, Jeff Hughell), играющий на семиструнном басу Conklin. Теперь, в полном составе, группа планирует выпустить новый альбом. Состав: Текущий состав Крис Барнс — вокал (1995-настоящее) Стив Суонсон — гитара (1998-настоящее) Роб Арнолд — гитара (2011-настоящее) Кевин Толли — ударные (2011-настоящее) Джефф Хьюэлл — бас-гитара (2012 - настоящее) Бывшие участники: Аллен Вест − гитара (1995—1998) Терри Батлер — бас-гитара (1995-2011) Грег Голл — ударные (1995-2011) Дискография Haunted (1995) Alive And Dead EP (1996) Warpath (1997) Maximum Violence (1999) Graveyard Classics (2000) True Carnage (2001) Maximum Video (2001, Видео Альбом) Double Dead (2002, Видео/Live Альбом) Bringer Of Blood (2003) Graveyard Classics II (2004) Live With Full Force (2004) 13 (Альбом Six Feet Under) (2005) Commandment (2007) Death Rituals (2008) Graveyard Classics III (2010) Undead (2012) Unborn (2013) Скрыть...
Популярные аккорды Six Feet Under:
алфавиту | просмотрам | случайно
  • six feet under uses 7 string guitars
    
    INTO
       trembal pic
    E|------------------------|
    B|------------------------|
    G|------------------------|
    D|------------------------|
    A|-----7--6-----5---------|
    E|--5--------7------6-----|
    A|------------------------|
    
    VERSE…
  • Tuning: "B"E"A"D"F#"B"
    
    
    Riff 1-A
    |--------------------------|--------------------------|
    |--------------------------|--------------------------|
    |--------------------------|--------------------------|
    |--3--2x-------------------|----------------------2-2-|
    |--3--2x-------------------|----------------------2-2-|
    |--1--0x-------------------|----------------------0-0-|
    |…
  • TUNING (low to high): D G C F A D
    
    
    CHORUS:
    D|------------------------------------------------
    A|------------------------------------------------
    F|------------------------------------------------
    C|------------------------------------------------
    G|------------------------------------------------
    D|--0-7-0-5-0-7-0-5-0-3-5---0-7-0-3-0-5-0-5-0-3-5-
    
    CHORUS-A
    C|--------------------------
    G|--------------------------
    D|--0-7-0-5-0-7-0-5-0-3-5-0*
    
    VERSE:
    D|--------------------------------------------
    A|--------------------------------------------
    F|--------------------------------------------
    C|-2-5--7-7-5-7---7-5-9-5--2-2-5-2---2--2-2-5-
    G|-2-5--7-7-5-7---7-5-9-5--2-2-5-2---2--2-2-5-
    D|-0-3--5-5-3-5---5-3-7-3--0-0-3-0---0--0-0-3-
    
    D|--------------------------------------------
    A|--------------------------------------------
    F|--------------------------------------------
    C|-7-7-5-7---7-5-7-5--9-9-9-9-9-9-9-9-9-9-9-9-
    G|-7-7-5-7---7-5-7-5--9-9-9-9-9-9-9-9-9-9-9-9-
    D|-5-5-3-5---5-3-5-3--7-7-7-7-7-7-7-7-7-7-7-7-
    
    D|--------------------------------------------
    A|--------------------------------------------
    F|--------------------------------------------
    C|-7-9--7-7-5-7---7-5-9-5--2-2-5-2---2--2-2-5-
    G|-7-9--7-7-5-7---7-5-9-5--2-2-5-2---2--2-2-5-
    D|-5-7--5-5-3-5---5-3-7-3--0-0-3-0---0--0-0-3-
    
    D|-----------------------------------
    A|-----------------------------------
    F|-----------------------------------
    C|-7-7-5-7---7-5-7-5--9--9-7--7-5--4-
    G|-7-7-5-7---7-5-7-5--9--9-7--7-5--4-
    D|-5-5-3-5---5-3-5-3--7--7-5--5-3--2-
    
    RIFF…
  • Intro                                     Riff 1                
    G---||--------------------------------------|---------------------------
    D---||--------------------------------------|---------------------------
    A---||--1--1--1--1--1--1--3--3--3--3--3--3--|--65----------------------
    D---||--------------------------------------|-------0--0--0--0--0--0----…
  • Tuned to: C
    
    . = Palm Mute
    
    Riff 1
    |----------------|
    |----------------|
    |----------------|
    |----------------|
    |----55556666----|
    |3333--------5555|
    Riff 2
    |----------------|
    |----------------|
    |2---5---3---6---|
    |2---5---3---6---|
    |0---3---1---4---|
    |----------------|
    Riff…
  • . palm mute
    = let ring
    
      INTRO
    d|-----------------------------------------------|
    A|-----------------------------------------------|
    F|-----------------------------------------------|
    C|------9------------9---------9-----------------|
    G|-2----7----2-------7----2----7----2-3-3--3-4-3-|
    D|-0----0----0--0-0--0----0----0----0-1-1--1-2-1-|…
  • Key:
    /:slide up
    :slide down
    (#):palm mute
    
    |----------|----------|----------|--------|(play 9x)
    |----------|----------|----------|--------|
    |----------|----------|----------|--------|
    |----------|----------|----------|--------|
    |-2-3-53/5|-2-3-53/5|-2-3-53/5|---9997|
    |-0-1-31/3|-0-1-31/3|-0-1-31/3|-0-7775|
    
    |--------------|--------------|
    |--------------|--------------|
    |--------------|--------------|
    |--------------|--------------|
    |-2-53/5-3-5-6|-2-53/5-3-5-6|
    |-0-31/3-1-3-4|-0-31/3-1-3-4|
    
    |------------------------------|(play…
  • riff
     (G)(A#) (c)   (c#)
    e----------------------------------------------
    B----------------------------------------------
    G----------------------------------------------
    D-5-8-10---5-8-11-10---5-8-10-8-5--------------
    A-5-8-10---5-8-11-10---5-8-10-8-5--------------
    E-3-6-8----3-6-9--8----3-6-8--6-3--------------
    
    e----------------------------------------------
    B---------repeat…
  • Tuning:C standard
    CFAD#GC
                                                               
    |-------------------------------------------------------|
    |-------------------------------------------------------|
    |-------------------------------------------------------|
    |---------5/6-----5---5-6------------5/6-----5---5-6-6--|
    |-2-6-5---3/4-----3---3-4----2-6-5---3/4-----3---3-4-4--|
    |-0-4-3-0------00---0--------0-4-3-0------00---0--------|
    
    |----------------------------|
    |----------------------------|
    |----------------------------|
    |-----3---3-------------5-6--|
    |-2-2-1-2-1-2------5----3-4--|
    |-0-0---0---0--0-0-3--0-3-4--|
    
    |--------------------------|-------------------------|
    |--------------------------|-------------------------|
    |--------------------------|-------------------------|
    |------/9--8-------6-------|------/9--8--------------|
    |-2----/7--6---6-5-4-6\5/6-|-2----/7--6---3-2-6-5-3--|
    |-0----------0-4-3---4\3/4-|-0----------0-1-0-4-3-1--|…
  • Tune down a whole step to D.
     
        play three times
     F ----------------------------||--------------------------------||
     C-----------------------------||--------------------------------||
     G -----------------------4----||--------------------------------||…
  • Tuning: 1.5 steps down (Db, Cb, ...)
    
    Riff 1
    |------------------------|---------------------------------------|
    |------------------------|---------------------------------------|
    |------------------------|---------------------------------------|
    |------------------------|---------------------------------------|
    |------------2--------5--|----2--------------2--------6-----2----|
    |-000000--0000000-00003--|-0000000-00000--0000000-00004--0000000-|…
  • Tuning: Drop C, but also can be played in C standard (but then everthing 2 frets higher except the low C).
    
    .  palm mute
    ~~ let note ring
    
    
    Part 1
    D|--------------------------------------------------|
    A|--------------------------------------------------|
    F|--------------------------------------------------|
    C|--------------------------------------------------|
    G|--------------3-3-3-3-3-3—-4-4-4-4-4--------------|
    C|-3-3-3-3-3-3--------------------------5-5-5-5-5-5-|
    
    Part…
  • Tuning: D G C F A D
    
    INTRO/VERSE
    Play this only on the first time
    |--------------------|
    |--------------------|
    |---/9-----9---------|
    |-3-/9-----9---------|
    |-3-/7-----7---------|
    |-1--0-0-0---0-0-0-0-|
    
    Then…
  • . - palm mute
    
    Tuning: D, G, C, F, A, D
    
    Intro
    |--------------------------------------------------|
    |--------------------------------------------------|
    |--------------------------------------------------|
    |--------------------------------------------------|
    |-9------------------------------------------------|
    |-7------------------------------------------------|
    
    Riff…
  • .  - palm mute           /  - slide up to
    
    
    Tuning D G C F A D
    
    Riff 1-  10x
    
    D|--------------------------------|
    A|--------------------------------|
    F|--------------------------------|
    C|-----------------8-----7-----9--|
    G|---------7/8-----6-----5-----7--|
    D|-0-0-0-0-5/6-0-0---0-0---0-0----|…
  • Tunning  C F Bb Eb G C
    
    I love this riff
    |-----------------------|
    |-----------------------|
    |-----------------------|
    |-----------------------|
    |--------7-4-4(2)-------|
    |--3ph-0-5-3-2-0--------|
           . . . .…
  • Tuning: D G C F A D
    
    
    |--------------------------------------------------------|
    |--------------------------------------------------------|
    |--------------------------------------------------------|
    |-2------2------2------2------2------2------5----8----3--|
    |-2------2------2------2------2------2------5----8----3--|
    |-0--0-0-0--0-0-0--0-0-0--0-0-0--0-0-0--0-0-3--0-6--0-1--|…
  • KEY:
    *:tremlo(whammy bar)
    ~~~~:feedback(random)
    /:slide up
    :slide down
    (#):palm mute
    
    |~~~~~~~~~~~~~~~~~~~~~~----------------------------------------------------|
    |~~~~~~~~~~~~~~~~~~~~~~----------------------------------------------------|
    |~~~~~~~~~~~~~~~~~~~~~~----------------------------------------------------|
    |~~~~~~~~~~~~~~~~~~~~~~----------------------------------------------------|
    |~~~~~~~~~~~~~~~~~~~~~~----------------------------------------------------|
    |~~~~~~~~~~~~~~~~~~~~~~0000000000000000000000000000000000000000000000000000|
    
    |------------------------------------|
    |------------------------------------|
    |------------------------------------|
    |------------------------------------|
    |------------------------------------|
    |000000000000111111111111333333333333|
    (play…
  • Guitar Plays Intro solo 6x, then bass joins in and plays:
    
    Intro (0:11) - 2x:
    G----------------------------
    D----------------------------
    A----------------------------
    D--5-5-5-5-5-6--5-5-5-5-5-3--
    
    Verse (0:14)…
  • Tuning: D G C F A D
    
    INTRO/VERSE
    Play this only on the first time
    |--------------------|
    |--------------------|
    |---/9-----9---------|
    |-3-/9-----9---------|
    |-3-/7-----7---------|
    |-1--0-0-0---0-0-0-0-|
    
    Then…
  • G||--------------------------------|------------------------------|
    D||*-------------------------------|------------------------------|
    A||*--0--------0-------------------|--3----2----0--------0--------|
    E||---------------------0--0--3----|------------------------------|…
  • tuning- standard C
    
    C-|-------------|
    G-|-------------|
    Eb|-------------|
    Bb|-------------|
    F-|-------------|
    C-|-------------|
    
    pm-palm mute
    
    intro
    |-------------------------------------------------|
    |-------------------------------------------------|
    |-------------------------------------------------|
    |-5-5-5-6-6-6-3-----------5-5-5-6-6-6-3-----------|
    |-5-5-5-6-6-6-3-3-3-3-333-5-5-5-6-6-6-3-3-3-3-333-|
    |-3-3-3-4-4-4-1-1-1-1-111-3-3-3-4-4-4-1-1-1-1-111-|
    pm…
  • Tuning: A#
    
    |A|(0:00)
                       (Play 8 Times)
    |------------------|------------------|
    |------------------|------------------|
    |------------------|------------------|
    |------------------|------------------|
    |-2-3-2-3-2--2-2-2-|------------------|
    |-2-3-2-3-2--2-2-2-|------------------|
    |-0-1-0-1-0--0-0-0-|------------------|…
  • Intro/Verse
    
    D |----------------------------------------------|
    A |----------------------------------------------|
    F |----------------------------------------------|
    C |--3-2-0----0-3-4--3-2-0----0-1----------------|
    G…
  • Tuning:D G C F A D
    
    
    
    |------------------------------------|
    |------------------------------------|
    |-----9---107---9---10---12---10-10-|
    |-----9---107---9---10---12---10-10-|
    |-----7---8-5---7---8----10---8--8--|
    |-0-0---0------0---0----0----0-------|…
  • Tunning "D"G"C"F"A"D" 
    
    
    Riff 1
    |-------------------------------------------------------|
    |-------------------------------------------------------|
    |-------------------------------------------------------|
    |---------2-----------2--3-----------2--------3------4--|
    |---------2-----------2--3-----------2--------1------2--|
    |--0--0-0-0----0--0-0-0--1----0--0-0-0----1-0----1-0----|…
  • Tuning C F Bb Eb G c
    
    Riff 1.1
    
    |----------------------------|
    |----------------------------|
    |----------------------------|
    |2-----------------53---3----|
    |2-----------------53---3----|
    |0---0-0-0-0-0-0-0-31-0-1----|
    
    
    Riff…
  • Tuning: Drop C
    
    
    Riff 1
    d|-----------------------------------------------------------------------|
    A|-----------------------------------------------------------------------|
    F|-----------------------------------------------------------------------|
    C|-10-5--7--6--------------------10-5--7--6------------------------------|
    G|-10-5--5--6--------------------10-5--5--6------------------------------|
    C|-10-5--0--6--6-6-6-6-6-6-6-6---10-5--0--6-8-8-8-8-8-8-8-8--------------|…
  • Tuning:D G C F A D
    
    |----------------------|
    |----------------------|
    |----------------------|
    |---------5---------5--|
    |---------5---------5--|
    |-0-0-0-0-3--0--0-0-3--|
      .......    .  ...
    
    
    |-----------------------------|
    |-12-----11-----10-----9------|
    |-14b16--13b15--12b14--11b13--|
    |-----------------------------|
    |-----------------------------|
    |-----------------------------|
    
    
    |-----------------------|
    |-----------------------|
    |-----------------------|
    |-2-2--------2-2--------|
    |-2-2--------2-2--------|
    |-0-0--------0-0--------|
    
    
    |---------------------------------|
    |---------------------------------|
    |---------------------------------|
    |-3-------6-------3-------5-------|
    |-3-------6-------3-------5-------|
    |-1-0-0-0-4-0-0-0-1-0-0-0-3-0-0-0-|…
  • play that 4x       riff A   ( x2)
    
           \/
    
       |-------------------|-------------------|-------|-------------------|
       |-------------------|-------------------|-------|-------------------|
       |-------------------|-------------------|--.-/.-|-------------------|…
  • TUNING DADG (Low to High)
    
    
         A
    G|-----------|
    D|*---------*|
    A|*---------*|
    D|--8-3-8-5--|  x2
    
         B
    G|-------------|
    D|*-----------*|
    A|*-----------*|
    D|--5~--8-3-8--| x8
    
             C
    G|--------------------------|
    D|*------------------------*|
    A|*------------------------*|
    D|---0~--4-3-0-6-5-0-4-3-2--|…
  • |--------------------------------|
    |--------------------------------|
    |------------6-------------------|
    |6-----5-----6-----6-----4---3---|
    |6-----5-----4-----6-----4---3---|
    |4-0-0-3-0-0---0-0-4-0-0-2-0-1-0-|
       . .   .…
  • Solo (Guitar): This is fairly accurate of the bass line from the solo to the end of the song.
    
    |-----------------------------------------------------------|
    |-----------------------------------------------------------|
    |-----------------------------------------------------------|
    |0--403020--0--403020-0-0--403020---------------------------|
    
    Main…
  • tune low E down to D
                                                                        three times
    E-]-----------------------------|----------------------------------------------|
    B-]-----------------------------|----------------------------------------------|
    G-]---8--8----7-------7---7-7---|o---8--8-----7----------7----------7--7------o|
    D-]---8--8----7-------7---7-7---|o---8--8-----7----------7----------7--7------o|
    A-]---6--6----5-------5-X-5-5---|----6--6-----5------5-5-5-------5--5--5-------|
    D-]-----------------------------|----------------------------------------------|
    
    
    E-]-----------------------------|----------------------------------------------|
    B-]-----------------------------|----------------------------------------------|
    G-]---8--8----7…
  • Tuning: D G C F A D (1 step down)
    
    Riff A
    |--------------------|
    |--------------------|
    |--------------------|
    |--------------------|
    |-7"-6"--2-3-5-7-6-7-|
    |--------0-1-3-5-4-5-|
             . . . . . .
    
    Riff B
    |--------------------|
    |--------------------|
    |--------------------|
    |--------------------|
    |-2-3-4-5-2-5--------|
    |-0-1-2-3-4-3--3"-2"-|…
  • Tuning C F Bb Eb G C
    
    
    Riff 1.1
    
    |-------------------------------|
    |-------------------------------|
    |4/5-5-5\4-4-4/5-5-5/4-4-4/5-5\4|
    |4/5-5-5\4-4-4/5-5-5/4-4-4/5-5\4|
    |2/3-3-3\2-2-2/3-3-3/2-2-2/3-3\2|
    |-------------------------------|
    
    
    Riff…
  • Tuning c F Bb Eb G c
    
    
    INTRO 1.1
    
    |-------------------------------------------------|
    |-------------------------------------------------|
    |9-----9\8----------------8---4-----4/5-----------|
    |9-----9\8----------------8---4-----4/5-----5\4---|
    |7-----7\6----------------6---2-----2/3-----5\4---|
    |7---0-7\6----0-0-0-0-0-0-6---2---0-2/3---0-3\2---|
    
    
    INTRO…
  • INTRO - Pick all low open D's 2x faster than shown
    |------------------------|
    |------------------------|
    |------------------------|
    |-5----------------------|
    |-5----------------------|
    |-3--0-0-0-0-0-0-0-0-0-0-|
    
    Play…
  • standard tuning
    * = Trill
    =palm muting
    
    Intro
    |--------------------------------|
    |--------------------------------|
    |--------3---------------3-------|
    |2-------1-------2-------3-------|
    |2-------1-------2-------1-------|
    |0---------------0---------------|
    Intro…
  • Tune down a whole step to D.   A ^ means to slide to the next note.
     
    F ------------------------------------------------------||
    C ------------------------------------------------------||
    G ------------------------------------------------------||
    D…
Наверх