Аккорды «Ska-P»

Ska-P
Ska-P - испанская ska-punk группа из Мадрида, собранная в 1994 году. Их песни характеризуются тотальным несогласием, тексты содержат критику капитализма и расизма, притеснения прав человека и животных с "лёгким налётом" анархизма. Песня Cannabis, где они требуют и поддерживают узаконение марихуаны, стала их трамплином, который помог им достигнуть известности в Испании, частично в Мексике и Южной Америке. В последние годы они участвовали в огромном количестве различных альтернативных фестивалей… Читать полностью... Ska-P - испанская ska-punk группа из Мадрида, собранная в 1994 году. Их песни характеризуются тотальным несогласием, тексты содержат критику капитализма и расизма, притеснения прав человека и животных с "лёгким налётом" анархизма. Песня Cannabis, где они требуют и поддерживают узаконение марихуаны, стала их трамплином, который помог им достигнуть известности в Испании, частично в Мексике и Южной Америке. В последние годы они участвовали в огромном количестве различных альтернативных фестивалей Европы. Roberto Ganan Ojea (больше известный как Pulpul) - настоящий вокалист и вторая гитара испанской группы Ska-P. Он родился в Мадриде, и рос в квартале Belmonte, от которого "у него остались его лучшие воспоминания и его самый счастливый жизненный опыт", как утверждает он в своей автобиографии, напечатанной на веб-странице Ska-P. 1994: Начало Его склонность к музыке проявилась в 12 лет. Он начал слушать музыку баскских групп, такой панк как Barricada, La Polla y Kortatu, и другие. Слушая эту музыку, он хочет научиться играть на каком-нибудь музыкальном инструменте, сначала его заинтересовали ударные, но в его доме не было достаточно средств, чтобы купить ударную установку, поэтому он приобрел электрогитару, Talmus de flecha, на которой он научился хорошо играть. Ему удалось достать темы групп Leno, Eskorbuto и прежде всего La Polla Records. Позже, Pulpul купил себе другую гитару и вместе с Pony, Gelete и Carlos (друзьями квартала), они начали сочинять собственные песни и разрывать в клочья мастерскую, где работал отец Carlos, который их позже выгнал оттуда, потому что начала трескаться крыша. Начальный состав был следующим: Pulpul, главный голос и гитара; Toni Escobar, гитара и второй вокал; Julio, бас; Kogote, клавишные и второй вокал; и Pako, ударные. В этом же году парни записывают совместно с фирмой звукозаписи AZ-Records свой первый диск, который они назвали по имени себя Ska-P, который содержал девять песен. Диск не достиг таких уж огромных продаж, по сравнению с последующими дисками, но он поспособствовал тому, чтобы о группе узнало приличное количество народа, особенно благодаря песне Como un rayo. Они выступили на энном количестве концертов, будучи на разогреве у Extremoduro o Platero y tu, но их поклонники были не очень многочисленны. 1995-1996: Прыжок в славу В 1995 гитарист Toni из-за проблем с работой (у него не было возможности совмещать работу и музыку) покидает группу, а на его место берут Joxemi. Также был приглашён Pipi, друг Pulpul, который до тех пор ограничивался своими переодетыми выходами на сцену во время концертов и помощью группе на концертах собирать и разбирать оборудование, и взявший на себя функцию второстепенного голоса. В 1996 произошли ещё два очень важных события, которые резко подняли планку славы группы: первое - выход их второго диска El vals del obrero, дело рук фирмы звукозаписи RCA Records (филиал Sony BMG), который разошёлся впечатляющим тиражом, самой главной песней этого альбома стала песня Cannabis, и второе - участие в Festival Vallekas Rock, что резко увеличило славу парней. 1997-1999: "Eurosis" и первый международный тур Вслед за турне по всей Испании они проехались с концертами по Франции, в 1997 они записывают третий диск, Eurosis, снова с помощью компании RCA. Они продолжают кататься по Испании и Франции, а также они совершили своё первое вторжение в Латинскую Америку, отыграв серию концертов в Аргентине и Мексике. Pako, ударник и основатель Ska-P, покинул группу посередине поездки, и вместо себя поставил нового ударника Luismi. Также они участвовали в фестивале Arezzo Wave de Italia, где они собрали большой аншлаг (около 10 000 человек). 2000-2004: Международное признание В 2000 году они записывают Planeta Eskoria, которую некоторые считают их лучшей работой, где они уплотняют звук и создают песни с более серьезным тоном, хотя также присутствуют песни в стиле ska festivalero предыдущих дисков, и их тексты оставались столь же прямолинейными. Туры уже проходят во Франции, Италии, Швейцарии и Испании. Это уже уважаемая многими странами группа. Два года спустя поступает в продажу их пятый альбом, Que corra la voz, который участники группы назвали своим самым удачным альбомом. Мы можем здесь видеть смесь из песен лёгкого и воздушного ska и песен с более плотным звуком подобно Planeta Eskoria. Список стран, которые узнают Ska-P, увеличивается, они совершают Европейский тур по Венгрии, Бельгии, Голландии, Австрии и ранее упомянутым странам. Также они возвращаются в Латинскую Америку, играя в Аргентине, Чили и Мексике. Кроме того, в вышеупомянутой поездке состоялось включение в группу жителей Бильбао Txikitin (горн) и Gari (тромбонист). В 2004 выходит их последний диск перед "Безвременным отпуском", Incontrolable, который, помимо того, что обладает 16 записанными живыми песнями со всей Европы, сопровождает DVD с 13 темами, записанным в Nion (Швейцария) и Париже. Кроме того включены все видеоклипы группы и фотки группы в последней поездке. 2005-2007: "Безвременный отпуск" Через более чем десяти лет в активе, в феврале 2005 они объявили, что они будут делать неопределенное выключение. Они доказали для этого, что "они нуждаются в отдыхе", тем не менее Пи-пи утвердило, что решение было только Pulpul, и что оставшаяся часть группы не могла оставаться без, так что они были должны оставлять это. В самом деле, есть слухи, основанные на позиции каких-то компонентов, которых были внутренние сражения между Joxemi, Pipi и Pulpul. Все же, группа объявила, что "остается открытой возможность будущего возвращения". Они объявили об организации прощального турне. Их последний концерт в Испании был 24 сентября 2005 в Cubierta de Leganes, и последний окончательный сольный концерт перед "отпуском" прошел в Аргентине 12 октября 2005. Все полученное в вышеупомянутом фестивале было подарено в различные аргентинские благотворительные организации, например в сообщества индейцев мапучес (в памяти вреда, приченённого испанскими вторжениями в течение завоевания и строения вице-королевтства на реке Ла-Плата) и столовые сообщества Буэнос-Айреса [собрания нуждающихся]. В 2006, шесть месяцев после "отпуска", певец Pulpul сделал вход в официальную страницу, объявив, что он возвращается в работу и надеется, что его новые тексты войдут в песни будущего диска Ska-P. Некоторые члены группы собрались в других группах на период "отпуска". Например Pipi основал альтернативную группу, похожую на Ska-P, так называемые The Locos. Joxemi сформировал группу с акцентом на Панк, так называемые No-Relax, 2006. 2007-2008: Возвращение 12 октября 2007, два года спустя "Безвременного отпуска", Pulpul напечатал объявление в официальном Вебе, в котором он говорил о возможном воссоединении группы в 2008. В том же официальном сообщении, различные члены группы пишут о своём согласии о воссоединении, за исключением Pipi; изначально он категорически отказывался покидать свою группу The Locos и отвергал возможность возвращении в Ska-P, хотя в конце концов он остыл и влился в состав. В тексте официального сообщения они говорят, что попробуют работать с текущим составом, и если все пойдёт гладко, то они выпустят новый альбом в октябре 2008. " Alacran producciones", в конце 2007 они заключили контракт с Ska-P для тура в 2008. Возвращение группы подтверждается на официальной странице группы, где они находятся, в связи с выходом нового диска(Lagrimas y Gozos), в минитуре по Европе (Италия, Франция и Испания) и Латиноамериканских странах (Мексика, Чили, Эквадор, Аргентина и Венесуэла) 5 сентября 2008, они выпустили Single альбома Lagrimas y Gozos, так называемый Crimen Sollicitationis, где они резко критикуют Католическую Церковь, Папу Бенедикто XVI, и педерастию некоторых священников. Альбом "Lagrimas y Gozos" был выпущен 7 октября спустя шесть лет без новых дисков и трех лет, не выступая на концертах. В конце концов, весь шум, развитый относительно "Lagrimas y Gozos" закончился 27 декабря 2008, с последним концертом поездки, который возвестил возвращение в группы в Испанию. Концерт состоялся в Cubierta de Leganes. Ska-p известны своим сильным политическим настроением, присутствующем в большинстве их музыкальных творений. Текстами своих песен они являются "отпетыми" анархистами (такой налёт присутствует в Espana va bien, Seguimos en pie, Sexo y religion и Poder pal pueblo). Их тексты проповедуют интернационализм и антирасизм (Ali el magrebi, America Latina Libre или Mestizaje), антимилитаризм (Paramilitar, A la mierda, Sargento Bolilla), проходятся по капитализму и критикуют многонациональные предприятия (Mc Dollar, Consumo gusto, Solamente por pensar), атеизм и критика религии и веры (Crimen Sollicitationis, Villancico, La mosca cojonera, Casposos, Sectas), освобождение животных(Insensibilidad, Animales de laboratorio, Kemalo, Verguenza, Wild Spain), защита легализации наркотиков (Cannabis, Al turron, Mis colegas), критика сил безопасности (Romero el madero, Derecho de Admision), темы современности (Intifada, El libertador) трудовые конфликты (Esquirol, Naval Xixon, El vals del obrero) и критика США с их империализмом (La sesera no va, Tio Sam, Welcome to hell, El imperio caera). Скрыть...
Популярные аккорды Ska-P:
алфавиту | просмотрам | случайно
  • VERSE:
    
    ----------------------|
    ----------------------|
    -7----------7---------|
    -7--7--5-3--7--7--5-3-|    8x
    -5--7--5-3--5--7--5-3-|
    ----5--3-5-----5--3-5-|
    
    PRE-CHORUS:
    
    ----------------------|
    ----------------------|
    -------7-----7--------|
    -7--9--7--9--7--9-----|…
  • F, F#, G
    
    F                                                 C
    No tengo ni un puto duro, estoy en la puta calle, me he quedado sin currelo.
    G
    No he pagado la hipoteca, me han expropiado la casa y casi voy al talego.…
  • INTRO/VERSE: *=x8    
    
      GUITAR A                 
      
      E------------------]     
      B------------------]     
      G------7--9--5-----]
      D---5--7*-9*-5*----] X2  	
      A---5*-5--7--3-----]   
      E---3--------------]    
      pm…
  • E ---------------------------------------------
    B ---------------------------------------------
    G ---------------------------------------------
    D ------2------------------2----3-2------------
    A --3-5---5--3---------3-5--5-3-----5----------
    E…
  • Intro Pt. 1
    E|----------------------------------------------------|
    H|----------------------------------------------------|
    G|---------------------------------------------5------|
    D|--7---5-5—-5-5---7---5-5—-5---7---5-5—-5-5---5---2--|
    A|--7---5-5—-5-5---7---5-5—-5---7---5-5—-5-5---3---2--|
    E|--5---3-3—-3-3---5---3-3--3---5---3-3—-3-3-------0--|
    
    Intro…
  • Dm        F   C        A#
    ¿Quiénes sois, aliados en la oscuridad,
    cómo sois, respiráis?
    quiero ver si en vuestros ojos hay humanidad
    mostraros ya, salid de ahí, os haremos sucumbir
    Dm       F  C            A#
    bildelberg,…
  • VERSE:
    
    G-------------------------------------------
    D-------------------------------------------
    A----------5555---3333-----------5555--3333-
    E-3333----------------------3333------------
    Vas caminando despacio, sin ganas…
  • Gm - Dm
    Gm - F   varias veces(?
    (intro)
    
    Mi pana, carnal...
    
      Gm                Dm
    Venimos de Madrid en este nuestro tren
       Gm                  F
    Raíles musicales que nos llevan y nos traen
     Gm…
  • Bass tab
    
    -------------------------------------------------------------------|
    -----0---------------0--------------0-----------------0------------|
    ----------8-6----87-------8-6------------8-6-----87------8-6-------|
    ------5-6----6-5-------5-6-----6-5----5-6-----6-5------5-6----6-5--|
    
    --------------------------------------------|
    0---0-------0---0---------------------------|
    --0----787----0-----787---8-6------4---6-4--|
    ------------------------6-----6-5-----------|
    
    
    -------------------------------------------|
    ---0---0-----0---0-----0---0---------------|
    -----0---787---0---787---0---787---5---5---|
    ----------------------------------3---3----|
    
    
    -------------------------------------------|
    -------------------------------------------|
    -------------------------------------------|
    6-5-3-6--h5-3-1-5--5-h-65-65-3-1-0---------|
    
    
    ------------------------------------|
    -----0---------------0--------------|
    ----------8-6----87-------8-6-------|
    ------5-6----6-5-------5-6-----6-5--|
    
    ------------------------------------------------|
    --0---0-----0---0-------------------------------|
    ----0---787---0---787---8-6------4---6-4--------|
    ----------------------6-----6-5-----------------|
    
    
    ----------------------------------------------------|
    --0---0------0---0-----0---0------------------------|
    ----0---787----0---787---0---787----5---5--1-3-5-1--|
    ----------------------------------3---3-------------|
    
    --------------------------------|
    --------------------------------|
    ----3---------------------------|
    --1---1-3-5-h-65-65-3-1-0-------|
    
    
    
    ----------------------------------------------------|
    -----------5---------------------------------5------|
    -3-3---6-3----6--3--3---6-3-5-6-8---3---6-3----6-3--|
    -----3-------------4--3-----------4---3-------------|
    
    
    -------------------------------|
    -------------------------------|
    --1-3-5-1----------------------|
    ----------h4-8-11-4-3-3-33-----|
    
    
    rit.-chorus
    
    -------------------------------------------------------------------|
    -------------------------------------------------------------------|
    -5-555-5-5-3-1-111-1-3-333-3-55555--------1-111-1-3-333-3-h-3-10-3-|
    -----------------------------------h33333--------------------------|
    
    normal
    
    
    --------------------------------|
    --0----------------0------------|
    --------8-6-----87------8-6-----|
    ----5-6-----6-5-----5-6-----6-5-|
    
    
    ----------------------------------------------------|
    0----------------0----------------------------------|
    ------8-6-----87------8-6-------5keep-h-5-13-5------|
    --5-6-----6-5-----5-6-----5-6-5---------------------|
    
    
    -------------------------------------------------------|
    -----------------------------------------------77------|
    ---5---5---5---5--1-3-5-1--0-7-0-7---8---8---8----7----|
    -3---3---3---3---------------------6---6---6-----------|
    
    
    --------------------------------------------------------------------|
    -0---0-----0---0-----------------------3----3-----------0-----0---0-|
    ---0---787---0---787--5---5---5---5--1---1------7---7-----0-----0---|
    --------------------3---3---3---3-------------5---5---------3-------|
    
    
    --------------------------------------------------------------12-14-|
    -------------------------------------11-----------14----------------|
    ------6------5-----1-1--h12-12-12-12----12-12-12-----12-12-12-------|
    -6--6---5--5---3-3--------------------------------------------------|
    
    ----------------------------------|
    -----------5----------------------|
    -3-3---6-3---6-3---3---6-3-5-6-8--|
    -----3-----------4---3------------|
    
    ------------------------------------------------------------|
    ------------5-----------------------------------------------|
    ----3---6-3---6-3--h1-3-5-1---------------------------------|
    --4---3---------------------h-4-8-11-4---h3333-15-15-15-15--|
    
    rit.-chorus
    
    -----------------------3-5-3----------------|
    -----------------------------5-3------------|
    --h5-----3-1-111-1-3-------------3-5-555-5--|
    --------------------------------------------|
    
    
    -------------------------------------------------|
    -------------------------------------------------|
    --------1-111-1--3-333-3-h8--5-555-5-3--1-111-1--|
    --3333-------------------------------------------|
    
    
    -----3-5-3---------------------------------------------|
    -----------5-3-----------------------------------------|
    --3------------3-5-555-5-------1-111-1-3-333-3-5-------|
    -------------------------3333--------------------------|
    
    
    pause
    
    ----------------------------------------------------------------------|
    ----------------------------------------------------------------------|
    -5---8-7--5---878-10--5---8-7--5---878-10---6keep-5-4---5----8-7--5---|
    ---5--------5-----------5--------5------------------------5---------5-|
    
    --------------------------------|
    --------------------------------|…
  • Dm
    Tenerte bien dormido, ese es nuestro cometido
    A#
    RADIO FALACIA, RADIO FALACIA
    G
    Detrás de ese cristal que deforma la verdad,
        A#                                   A
    te vamos a hacer ver a este mundo del revés
    
    D…
  • Am
    ¿Quién educó, su mente enajenada?
      F
    Siempre soñó con la gran pantalla
      D
    ser el mejor disparando un arma
      C                E
    como su héroe de acción
    
    
    Despertó sumido en el tormento
    decidió que había "llegao"…
  • INTRO
    
    SACO UN PAPELILLO LENTO
    
    SOL-----------------------------------
    RE------------------------------------
    LA----5--3-----5-3-2------------------
    MI--3-------3--------3----------------
    
    Y SACO UN PAPELILLO DE NUEVO...
    SOL------------------------------------------
    RE-------------------------------------------
    LA----2---2--5-3-2---------------------------
    MI--3---3----------3-------------------------
    
    RAPIDO
    SOL-----------------------------------
    RE------------------------------------
    LA----5--3-----5--3-------------------
    MI--3-------3-------------------------
    
    NO…
  • Am             G                Dm
    Hay un pequeño pueblo acá en el sur
    Am                  G               Dm
    Contiene perfume de oliva sabor andaluz
    Am                  G          Dm
    Libertad, igualdad, unidad, solidaridad
    Am…
  • Intro:
    F# G F# (palm mute)
    
    Verse:
                B                  A                   G                                F#
    Entre el Atl?ntico y el Mar Mediterr?neo hay una tierra de mar y mucho sol
    B…
  • F
    Cuanto montaje, cuanta morralla
                            C
    cuanto vampiro de television
                                                   F
    Brujas, monjes y videntes, estafadores de profesion…
  • Intro (teclado)
    Esto va durante casi toda la canción.
    
    e|--3-5|--3-5|--3-5|-0-0-5|
    B|-3---|-3---|-3---|------|
    G|-----|-----|-----|------|
    
    D            A
    Secuestrad a Gasta Claus
    D          A
    aplastad a Gasta…
  • Intro  *= x8    #= x4
    
    E|--3*--3*--1*--1#--3#--|
    B|--5---3---3---1---3---|
    G|--5---4---2---2---4---|          x2
    D|----------------------|
    A|----------------------|
    E|----------------------|
    
    Verse  
    
    E|--3*--3*--5*--1*--3*--3*--1*--1#--3#--|
    B|--5---3---5---1---5---3---3---1---3---|
    G|--5---4---5---2---5---4---2---2---4---|
    D|--------------------------------------|
    A|--------------------------------------|
    E|--------------------------------------|
    Then…
  • > means strum, play the note a couple of times
    
    Intro
    
    G|---------------------------------
    D|---------------------------------
    A|---------------------4-4----3-3-3
    E|-1-1--1----4-4--4----------------
    
    Verse
    
    G|------------------
    D|------------------
    A|----------4>--3>--
    E|--1>--4>----------
    
    
    G|--------5-------------------------------------------------------
    D|--3--6-----6--3-------------------------------------------------
    A|-----------------6--4--3-----3--6--3-----3--6--3--4--3--4--6--4-
    E|--------------------------4-----------4-------------------------
    
    G|------------------------------------
    D|-------------2--5--2-----------2----
    A|-------4--3-----------3--4--6-------
    E|-1--4-------------------------------
    
    G|--------5-------------------------------------------------------
    D|--3--6-----6--3-------------------------------------------------
    A|-----------------6--4--3-----3--6--3-----3--6--3--4--3--4--6--4-
    E|--------------------------4-----------4-------------------------
    
    G|----------------------------------------------
    D|-------------2--5--2-----------2--------------
    A|-------4--3-----------3--4--6-----------------
    E|-1--4-----------------------------------------
    
    Here…
  • INTRO: F A# F C
    EL PUNTEO SE LOS DEJO EN DOS PARTES PERO EN LA CANCION VA TODO PEGADO
    e | ---------------------------------------|
    b | -------3---------------3---------------|
    g | -3-3-3-3-2-3-2-3-3-3-3-5-5-5-5-5-5-5-5-|
    d…
  • Intro: D   A   
    
    G         D 
    Esquirol, esquirol
    A         D
    lameculos del patrón
    G         D
    esquirol, esquirol
    A          D
    nuestra humillación
    G         D                                 
    esquirol, esquirol
    A…
  • G                                   C
    Ese de la foto, dime tú quién coño es
    G                                             D
    al lado de esos mierdas que se reparten el pastel
    C                           G…
  • C              G    C                  F
    Joder con las ETTs, joder cuándo van a arder
      C              G          F G   C  G  F  G# G
    
    C                    G
    Nuevos parásitos del trabajador
    F               G#…
  • guitare accoustique
    accords:  G C D
    
    ----------3------------------0------------------2----------------0---------------------|
    -------------0------------------1------------------3---------------1-------------------|
    ----------------0------------------0--------2--------2-------0------0------------------|
    -------------------------2---------------0------------------2--------------------------|
    -----2---------------3------------------------------------3----------------------------|
    --3------------------------------------------------------------------------------------|
    
    ----------3------------------0----------2------2p0-----3--------------------------------|
    -------------0------------------1-------3-------------3---------------------------------|
    ----------------0------------------0----2-----------------------------------------------|
    -------------------------2---------------0----------------------------------------------|
    -----2---------------3------------------------------------------------------------------|
    --3-------------------------------------------------------------------------------------|…
  • D                                      A
    A todos los caídos, a los detenidos, a los que resisten en pie
        G
    A todos mis hermanos que nunca han callado,
      B                  A
    que no se han dejado vencer
    D
    Los que…
  • Intro :
    
    e|--------------------------------|
    A|--------------------------------|
    D|--------------------------------|
    G|--------4---4-------------------|
    B|/5----5---5---5---------3-3-3h4-|
    E|----------------5-----5---------|
    
    e|--------------------------------|
    A|--------------------------------|
    D|--------------------------------|
    G|--------4---4-------------------|
    B|-5----5---5---5---------3---4---|
    E|----------------5-----5---------|
    
    Verse…
  • Intro:
    ------
     F                        Bb
    ¡Eh, tu! No me molestes, soy el mas grande, el mas fuerte
     F                        C
    ¡Eh, tu! No me molestes, de la jet el presidente
     F                        Bb 
    ¡Eh,…
  • 6ª Kuerda |--5-6-7---7-3---3-2---|
    
    Esto es lo ke hace el bajo.
    
    Kon esto por debajo, las dos guitarras hacen:
    
    e |-------------------|
    B |-------------------|
    G |-------------------|
    D |-16--16--17--16----|
    A…
  • Tuning: Standard EADGBe
    
    Intro
    
       B   G   F#  F   E   D  B#
    E|-2-|-3-|-2-|-1-|-0-|-5-|-1-|
    B|-4-|-3-|-2-|-1-|-0-|-7-|-3-|
    G|-4-|-4-|-2-|-1-|-1-|-7-|-3-|
    D|-4-|-5-|-5-|-3-|-2-|-7-|-3-|
    A|-2-|-5-|-5-|-3-|-2-|-5-|-1-|
    E|---|-3-|-2-|-1-|-0-|---|---|
    
    
    Verse…
  • D Dsus2 Dsus4     D Dsus2 Dsus4
    
    
       D
    sentado en el bordillo del portal
        D                               G
    con la boina calada siempre como el che
          A          G          D
    en verano cumplira noventayseis…
  • Intro: LA# - DOm x4 (medios tiempo)
    
    ESTROFA:
                                A#
    ¿Por qué en el mundo hay tanto dolor?
                          Cm
    ¿Por qué se hacen las guerras?
                           A#
    ¿Por qué se siembra…
  • D            A                 Bm
    En la oscuridad de mi frustración
                   G                              D
    cuando la esperanza está en peligro de extinción
                 A              Bm
    un brote de luz en…
  • This is the Guitar Solo/Intro in Insecto Urbano for Bass:
    
    G-String:-------------------------------------------------|
    D-String:------5----------5----------5--------------------|
    A-String:-567-7-765--567-7-012--567-7-765--55555557777777-|
    E-String:-------------------------------------------------|…
  • *Octavada con armónico de pulgar
    / arrastrado
    _ Ligado
    
    
    El que va después del estribillo
         SOL=G                 RE=D              MI=E                 DO=C          SOL             RE            MI      DO
     T…
  • INTRO:
    
    F# - G - F#   (4 veces)
    
    Bm - A - G
    Bm - A - F#
    Bm - A - G
    Bm - A - Em - F#
    
    
    Bm                            A
    Entre el Atlántico y el mar Mediterráneo 
    G                            F#
    hay una tierra…
  • intro(guitarra): A D E A
    
    intro (bajo):
    
    E -55--------------------------55
    A ----44-77-44-55--77------------
    D --------------------66-99-66---
    
    
    Como si lo sabéis, nosotros venimos
    De un barrio obrero de Madrid…
  • Dm            F              C           G
    Desde el nacimiento el miedo te acompañara, 
    Dm          F             C          G
    Es más efectivo, que un ataque nuclear.
    
    D5 F5 C5 G5 
    
    Dm
    Miedo al desempleo 
    F
    Miedo…
  • Todo esta parte va en Dm
    
    Toda la vida aguantando un infierno conyugal
    su boca huele a ginebra y su cuerpo huele mal
    sigues pasando los días evadiendo la realidad
    el miedo brilla en tus ojos, hoy te he vuelto a golpear.
    
    No…
  • Intro:
    D C G   D C G  D C G  A
    
    Verse:
    D                                C              G
    Hoy, firmando el finiquito yo reboso de ilusi?n.
    Me he quedado sin trabajo, en paro y sin liquidaci?n
    con la abuela, con la…
  • ACORDES:> F# G# C#  B  D
    
    intro:F#-B-F#-B  F# x3
          F#-C#-G#-B
    F#                   B
    Ahi va il auto oficiale
    F#                  B
    la sua badeira nazionale
    F#           B
    mizuri di siqudersa
      D           C#
    polizia…
  • Intro Pt.1
    Play C5 till “hui!!!”
    
    Intro Pt.2    x2
    
    E|--3-3-3--3-3-3--6-6-6--6-6-6---3-3-3—-3-3-3--6-6-6—-6-6-6--|
    H|--3-3-3--3-3-3--6-6-6--6-6-6---3-3-3--3-3-3--8-8-8--6-6-6--|
    G|--5-5-5--5-5-5--7-7-7--7-7-7---5-5-5--5-5-5--8-8-8--7-7-7--|
    D|--5-5-5—-5-5-5--8-8-8--8-8-8---5-5-5--5-5-5---------8-8-8--|
    A|----------------8-8-8--8-8-8------------------------8-8-8--|
    E|-----------------------------------------------------------|
    
    Verse…
  • Intro y Riff: (Escucha Bien El Tiempo)
    
    E-2-5-4-2-2-5-5-0-0-2--2-5-4-2-2-5-5-0-I <---- (6ta. Cuerda)
    
    
    Solo yo en el sillón, sentado frente al televisor
    No se que hacer, qué puedo ver, algún misterio sin resolver
    Una…
  • INTRO: (con teclado) REm - DO - LA# - LA x2
    
    ESTROFA:
    
    Dm
    Comienza mi jornada cuando sale el sol
                                    C   A#              Dm
    Tengo 12 años, vivo en la desolación acá en otra dimensión
    Dm
    Mis…
  • G                  D
    25, ya es Navidad. Todos juntos vamos a brindar
        C
    Por Ruanda, Etiopía. En Venezuela o en la India
               G             D
    Hoy mueren niños, ¡FELIZ NAVIDAD!
    G                            D
    Navidades…
  • Intro: Em B Bm A
    
    Em
    Esta ciudad es la propiedad
    B
    Del Señor Matanza!!
    Bm
    El de la rebaja baja del taxi
    A
    Los tiros, la tira, el bazucó y la mentira!
    
    Em
    Esta ciudad es la propiedad
    B
    Del Señor Matanza
    Bm
    Esa…
  • Intro:
    ------
    
    E||--2--0--3----2--0--3----2--0--3--3-3-3----2--0--3--3-3-3--||
    B||--3--3--3----3--3--3----3--3--3--3-3-3----3--3--3--3-3-3--||
    G||--2--2--2----2--2--2----2--2--2--2-2-2----2--2--2--2-2-2--||
    D||--0--0--0----0--0--0----0--0--0--0-0-0----0--0--0--0-0-0--||
    A||----------------------------------------------------------||
    E||----------------------------------------------------------||
    
    Despues…
  • E:------------------------------------------------------------
    B:------------------------------------------------------------
    G:---------------------------------------------------------2--
    D:---------2---2---------2-0-----------2---2-----4-------2----
    A:-----3-3---3-------3-3-----3-----3-3---3---5-5---5-3-3------
    E:-3-3-----------3-3-----------3-3----------------------------…
Наверх