Аккорды Slash - Driving Rain (feat. Myles Kennedy & the Conspirators)

Добавлено: @romashka
Дата добавления: 09 Марта 2024г.
Рейтинг:
0.0
Просмотров: 29
Транспонировать - +
Tuning - Eb Standard (tune all down 1 fret)

[Intro]

D#|-------------------------------|-------------------------------|
A#|-------------------------------|-------------------------------|
F#|-------------------------------|-------------------------------|  play 4x
C#|---------------5-----7---5~----|-------------------------------|
G#|-------------5-----5---5-------|-7-5---------------------------|
D#|-0---0---5/7-------------------|-----7-6-5-5-0-3---0-5-0-3~----|

On 3rd,4th time of Intro, second guitar joins in

[Verse]

    Guitar 1
D#|----------------------------------|-----------------------------------|
A#|----------------------------------|-----------------------------------|
F#|----------------------------------|-----------------------------------|
C#|---------------5-----7---5~-------|---------------5-----7---5---------|
G#|---7-------------------7----------|---7-------------------7-----------|
D#|-0-----5-6h7----------------------|-0-----5-6h7-----------------------|
  |
  | Gutiar 2
D#|---0------------------------------|---0-------------------------------|
A#|---0------------------------------|---0-------------------------------|
F#|---1---------------------0--------|---1---------------------0---------|
C#|---2---------------------0--------|---2---------------------0---------|
G#|---2-----2p0---2---------x--------|---2-----2p0---2---------x---------|
D#|-0-0---0-------0---0-5-0-3--------|-0-0---0-------3---0-5-0-3---------|
         PM       PM  PM***                 PM       PM  PM***

    Guitar 1
D#|----------------------------------|-9p7-------------------------------|
A#|----------------------------------|-----9p7-9p7-----------7h9---------|
F#|----------------------------------|-------------9p6---6h9-------------|
C#|---------------5-----7---5~-------|-----------------9-----------------|
G#|---7-------------------7----------|-----------------------------------|
D#|-0-----5-6h7----------------------|-----------------------------------|
  |
  | Gutiar 2
D#|---0------------------------------|-----------------------------------|
A#|---0------------------------------|-----------------------------------|
F#|---1------------------------------|-----------------------------------|
C#|---2------------------------------|-5p4p2---2-----2---------2---------|
G#|---2-----2p0---2------------------|-------5---0p2-----2---2-----------|
D#|-0-0---0-------3---0-5-0-3~-------|-----------------3---3-------------|
         PM       PM  PM***                            PM*****
        
    Guitar 1
D#|----------------------------------|-----------------------------------|
A#|----------------------------------|-----------------------------------|
F#|---------------5-----7---5--------|---------------5-------------------|
C#|---7-----------5-----7---5--------|---7-----------5-------------------|
G#|-0-----0-7p5-------0---0----------|-0-----0-7p5-------0-5-0-7---------|
D#|----------------------------------|-----------------------------------|
  |
  | Gutiar 2
D#|---0------------------------------|---0-------------------------------|
A#|---2------------------------------|---2-------------------------------|
F#|---2------------------------------|---2---------------------2~--------|
C#|---2-----5p4p2-------4---2--------|---2-----4p2---------0-2-----------|
G#|-0-0---0-------3---0-5-0-3--------|-0-0---0-------3-0-3---------------|
D#|----------------------------------|-----------------------------------|
         PM           PM***                          PM*******

    Guitar 1
D#|----------------------------------|-----------------------------------|
A#|----------------------------------|-----------------------------------|
F#|----------------------------------|-----------------------------------|
C#|---------------5-----7---5~-------|---------------5-----7---5---------|
G#|---7-------------------7----------|---7-------------------7-----------|
D#|-0-----5-6h7----------------------|-0-----5-6h7-----------------------|
  |
  | Gutiar 2
D#|---0------------------------------|---0-------------------------------|
A#|---0------------------------------|---0-------------------------------|
F#|---0---------------------0--------|---0---------------------0---------|
C#|---2---------------------0--------|---2---------------------0---------|
G#|---2-----2p0---2---------x--------|---2-----2p0---2---------x---------|
D#|-0-0---0-------3---0-5-0-3--------|-0-0---0-------3---0-5-0-3---------|
         PM      PM   PM***                 PM       PM  PM***

[Prechorus]

    Strum with rhythm
D#|-----------------|-0--------0----------|-----------------|-0----------0-----------|
A#|-----------------|-2--------0----------|-----------------|-2----------0-----------|
F#|-4---------------|-2--------1----------|-4---------------|-2----------1-----------|
C#|-4---------------|-2--------2----------|-4---------------|-2----------2-----------|
G#|-2---------------|-0--------2----------|-2---------------|-0----------2-----------|
D#|-----------------|----------0----------|-----------------|------------0-----------|

D#|-----------------|-0-------------------|------------------------|-------------------------|
A#|-----------------|-2--------0----------|------------------------|-------------------------|
F#|-4---------------|-2--------0----------|-7--7--7----------------|-4--4--4--4--4--4--4--4--|
C#|-4---------------|-2--------0----------|-7--7--7-----7--7--7----|-4--4--4--4--4--4--4--4--|
G#|-2---------------|-0--------2----------|-5--5--5-----4--4--4----|-2--2--2--2--2--2--2--2--|
D#|-----------------|----------3----------|------------------------|-------------------------|

[Chorus]
   
    Strum chords with rhythm
D#|-----------------|-----------5----5-----|------------------|-------------------------|
A#|-9---------------|-7----7----5----5-----|-9----------------|-------------------------|
F#|-9---------------|-7----7----6----6-----|-9----------------|-5--5--5--5--5-----------|
C#|-9---------------|-7----7----7----7-----|-9----------------|-5--5--5--5--5-----------|
G#|-7-----------7/9-|-9----9----7----7-----|-7----------------|-3--3--3--3--3-----------|
D#|-0---------------|-----------5----5-----|-0----------------|----------------3--2--0--|

D#|-----------------|-----------5----5-----|------------------|-------------------------|
A#|-9---------------|-7----7----5----5-----|-9----------------|-------------------------|
F#|-9---------------|-7----7----6----6-----|-9----------------|-5--5--5--5--5--5--5-----|
C#|-9---------------|-7----7----7----7-----|-9----------------|-5--5--5--5--5--5--5-----|
G#|-7-----------7/9-|-9----9----7----7-----|-7----------------|-3--3--3--3--3--3--3--0--|
D#|-0---------------|-----------5----5-----|-0----------------|-------------------------|

D#|--------------------------|
A#|--------------------------|
F#|-7--7--7--7--7--7--7\-----|
C#|-7--7--7--7--7--7--7\-----|
G#|-5--5--5--5--5--5--5\-----|
D#|--------------------------|

To be continued later today

[Bridge]

D#|---------------------------------------------------------------------------|
A#|---------------------------------------------------------------------------|
F#|---------------------------------------------------------------------------|
C#|---------------------------------------------------------------------------|
G#|---------------------------------------------------------------------------|
D#|---------------------------------------------------------------------------|

D#|---------------------------------------------------------------------------|
A#|---------------------------------------------------------------------------|
F#|---------------------------------------------------------------------------|
C#|---------------------------------------------------------------------------|
G#|---------------------------------------------------------------------------|
D#|---------------------------------------------------------------------------|

[Outro]

D#|---------------------------------------------------------------------------|
A#|---------------------------------------------------------------------------|
F#|---------------------------------------------------------------------------|
C#|---------------------------------------------------------------------------|
G#|---------------------------------------------------------------------------|
D#|---------------------------------------------------------------------------|

D#|---------------------------------------------------------------------------|
A#|---------------------------------------------------------------------------|
F#|---------------------------------------------------------------------------|
C#|---------------------------------------------------------------------------|
G#|---------------------------------------------------------------------------|
D#|---------------------------------------------------------------------------|

D#|---------------------------------------------------------------------------|
A#|---------------------------------------------------------------------------|
F#|---------------------------------------------------------------------------|
C#|---------------------------------------------------------------------------|
G#|---------------------------------------------------------------------------|
D#|---------------------------------------------------------------------------|

D#|---------------------------------------------------------------------------|
A#|---------------------------------------------------------------------------|
F#|---------------------------------------------------------------------------|
C#|---------------------------------------------------------------------------|
G#|---------------------------------------------------------------------------|
D#|---------------------------------------------------------------------------|  
Наверх