Аккорды «Slayer»

Slayer
Эта культовая американская команда, входящая в большую четвёрку треш-метала, образовалась в Лос-Анджелесе в 1981 году. Прежде чем Slayer объединил четверых своих участников, 16-летний Керри Кинг, бравший гитарные уроки, стал играть в группе своего учителя, носившей название Quits. В этой же группе, исполнявшей в основном кавер-версии, он познакомился с Томом Арайа. В дальнейшем, когда участники группы разбрелись в разных направлениях, Кинг стал подыскивать себе новую команду и вскоре познакомился… Читать полностью... Эта культовая американская команда, входящая в большую четвёрку треш-метала, образовалась в Лос-Анджелесе в 1981 году. Прежде чем Slayer объединил четверых своих участников, 16-летний Керри Кинг, бравший гитарные уроки, стал играть в группе своего учителя, носившей название Quits. В этой же группе, исполнявшей в основном кавер-версии, он познакомился с Томом Арайа. В дальнейшем, когда участники группы разбрелись в разных направлениях, Кинг стал подыскивать себе новую команду и вскоре познакомился с Джеффом Ханнеманом. После этого они нашли профессионального барабанщика - Дэйва Ломбардо, жившего в паре кварталов от дома Кинга. Последним к группе присоединился Том Арайа. Slayer впервые начали выступать в 1982 году, играя песни других групп, таких как Judas Priest, Black Sabbath, Scorpions и Iron Maiden. Также на новоиспеченную команду оказывали большое влияние Venom и Motörhead. Сначала парни выступали в небольших клубах. В 1983 году во время выступления в одном из таких заведений их заметил Брайен Слэджел, которому принадлежала известная студия Metal Blade Records. После выступления Slayer Слэджел предложил им записать свою песню для сборника Metal Massacre, Volume 3. Группа поддержала эту идею при условии, что Брайен поможет выпустить им альбом. Для Metal Massacre, Volume 3 Slayer записали композицию Agressive Perfector. Metal Blade подписала с группой контракт, и команда приступила к работе над своим дебютным альбомом Show No Mercy. Хотя данный релиз нельзя назвать неудачным диском, он в большей степени представлял собой промежуточный этап, позволивший группе подготовиться к записи своего по-настоящему экспериментального альбома Hell Awaits. Впечатленные манерой таких групп, как Mercyful Fate, комбинировать в каждой песне как можно большее число риффов, Slayer расширили свою творческую платформу и вскоре выпустили ЕР Haunting the Chapel, сделавший команду одной из лучших в жанре наряду с Metallica, Exodus и Venom. Show No Mercy вышел в декабре 1983-го. На диске было много сольных партий, бешеный ритм и необычный вокал. После выхода альбома всем стало ясно, что Том, Джефф, Керри и Дэйв были профессиональными музыкантами. В 1985 году вышел Hell Awaits. Записанный с тем же продюссером, Слэджелом, этот альбом отличался еще более агрессивным звучанием. За довольно короткий срок только в США было продано более 100000 копий этого диска. В альбом вошли хиты, ставшие впоследствии классикой трэша: At Dawn They Sleep, Kill Again, Necrophilliac и Hell Awaits. Группа завоевывала популярность, но ее финансовое положение было неважным. Музыкантам даже приходилось возить концертное оборудование на автомобиле Тома. Однако с начала 1986 года Slayer стали работать с продюсером Риком Рубином, в разное время сотрудничавшим с такими группами, как Aerosmith, Rollins Band и Red Hot Chili Peppers. После нескольких хаотичных лет Slayer получили музыкально грамотного и прогрессивного продюсера, способного обеспечивать музыкантов не только студийными удобствами, но и творческими идеями. Он изумил группу своим желанием видеть Slayer все той же агрессивной и задиристой командой. Альбом 1986 года Reign in Blood, первый из записанных с участием Рубина, считается одним из лучших в жанре thrash metal. В 1988 году вышла пластинка South of Heaven, представлявшая во многих аспектах более мелодизированный вариант Reign in Blood. Появились первые песни с медленными гитарными переборами, которые в прессе попытались назвать балладами. Seasons in the Abyss, сочетавший элементы предыдущих двух дисков, подвел группу к концертному туру Decade Of Aggression. После успешных гастролей, последовавших за выпуском пластинки, команда была на грани коммерческого прорыва. Появился первый официальный видеоролик, а Slayer наконец стали регулярно участвовать в крупных рок-фестивалях. В конце гастрольного тура группа рассталась с Дэйвом Ломбардо и заключительные представления сезона доигрывала уже с Полом Бостафом на ударных. Вышедший в 1994 году после четырехлетней паузы Divine Intervention обошел в чартах Billboard новую пластинку Барбары Стрэйзанд. Ничего принципиально нового группа не сыграла, но довела до совершенства некоторые аспекты предыдущих работ. В 1996 году Slayer выпустили панк-пластинку, укомплектованную в основном кавер-версиями таких групп, как Minor Threat, T.S.O.L. и Verbal Abuse. На пластинке фигурировала даже песня Игги Попа I Wanna Be Your Dog, которую "Slayer" переделали в I'm Gonna Be Your God. В 1998 году выходит альбом Diabolus in Musica, показавший, что Slayer не тяготеет исключительно к одному направлению, став ближе к грув-металу. Довольно техничный альбом, с новыми элементами в музыке коллектива. После фестиваля Ozzfest-99 группа приступила к записи нового альбома, God Hates Us All, который появился на прилавках лишь в 2001 году. С его выходом Slayer еще раз доказали свой профессионализм, а вокал Тома Арайя был настолько искренен, что создается впечатление, что God действительно Hates Us All. В 2006 году группа, в состав которой вернулся Дэйв Ломбардо, записала десятый студийный альбом Christ Illusion. Он был ближе к работам раннего периода группы, в отличие от нескольких последних альбомов. В 2009 году вышел World Painted Blood - одиннадцатый студийный альбом, который был выпущен на лейбле American Recordings/Sony Music 3 ноября 2009 в США, 28 октября 2009 года в Японии, 30 октября 2009 в Австралии, а мировой выпуск состоялся 2 ноября 2009. Однако альбом попал в сеть несколько раньше официального релиза, а именно 24 октября 2009 года. Джефф Хэннеман скончался 2 мая 2013 года от печеночной недостаточности. В 2014 году вышла новая песня Implode, которая распространялась бесплатно через Интернет. В 2015 году свет увидела When The Stillness Comes, чей релиз состоялся 17 апреля на День музыкального Магазина Nuckear Blast. Написана она была для автомобильного бренда Scion, который выпустил в честь американских трэшеров автомобиль Scion tc Slayer На 9 сентбря запланирован выход 12 cтудийного альбома, который получил наименование "Repentless". Скрыть...
Популярные аккорды Slayer:
алфавиту | просмотрам | случайно
  • Notation explanation:
      |---------|
      |--3tr4---|  Trill.  Hammer on and off the 4th fret very quickly.
      |---------|
    
      |-------|-------////----|-------|  This means repeat the last
      |-------|----*-////-----|-------|…
  • e:-18b-18b~~--18b-18b~~~-|
    B:-----------------------|
    G:-----------------------|
    D:-----------------------|
    A:-----------------------|
    E:-----------------------|
    
    
    e:15-15-17-15-18-15-17-18-15h16h18p16p15-15-17-18-17-15-16-18-17-15-etc-|
    B:----------------------------------------------------------------------|
    G:----------------------------------------------------------------------|
    D:----------------------------------------------------------------------|
    A:----------------------------------------------------------------------|
    E:----------------------------------------------------------------------|
    
    
    
    e:----------------------------------------------------------|
    B:-18b-15-16-18---------------------------------------------|
    G:--------------17-14-15-17----------------------17-14-15-17|
    D:--------------------------17-14-15-17-14-15-17------------|
    A:----------------------------------------------------------|
    E:----------------------------------------------------------|
    
    
    e:---------------15-16-18-18b-------------------------------------------|
    B:15-16-15-16-18--------------------------------------------------------|
    G:----------------------------------------------------------------------|
    D:------------------------------7-7-7-7-9-9-9-9-10-10-10-10-12-12-12-12-|
    A:----------------------------------------------------------------------|
    E:----------------------------------------------------------------------|
    
    
    
    e:-----------------------------------------------------------|
    B:-----------------------------------------------------------|
    G:-----------------------------------------------------14-16-|
    D:---------9-9-9-9-10-10-10-12-12-12/14-14-15-15-17-17-------|
    A:12-12-12---------------------------------------------------|
    E:-----------------------------------------------------------|…
  • Tuning: Eb(Eb,Ab,Db,Gb,Bb,Eb)                  
    
    --------------------------------------------------------------
    --------------------------------------------------------------
    --------------------------------------------------------------
    -0-0-0-3-2-0-3-2-0-0-0-0-3-2-0-5-3-0-0-0-0-3-2-0-3-2-0---3-5--
    -------------------------------------------------------3-1-3--
    -------------------------------------------------------1------…
  • Riff 1  *= pm
    |---------------------------------------------------------------|
    |---------------------------------------------------------------|
    |---------------------------------------------------------------|
    |-----------------5-----5-----5-----5-----5---------------------|
    |---2-3--5-4------4-----4-----4-----4-----4---------------------|
    |---0-1--3-2--0-0---0-0---0-0---0-0---0-0-----------------------|…
  • rhy. fig 1
    e:----------------------------------|-------------------------------|
    B:----------------------------------|-------------------------------|
    G:----------------------------------|-------------------------------|
    D:----------------------------------|-------------------------6---7-|
    A:--5-7-------------5-7-------------|-5-7-------------9---7---4---5-|
    E:--0---0-0-0-0-0-0-0---0-0-0-0-0-0-|-0---0-0-0-0-0-0-7---5---------|…
  • Tuning: Eb(Eb,Ab,Db,Gb,Bb,Eb)
    
       tempo=78
       (12-string acoustic effec t) ({}'s mean repeat symbols)
    e:|----------0--------------|---------0--|---------0--------------|
    B:|}------0-----0-----------|------0----{|------0-----0-----------|
    G:|----3-----------3-----3--|---3--------|---3-----------3-----3--|
    D:|}5-----------------5-----|4----------{|5-----------------5-----|
    A:|-------------------------|------------|------------------------|
    E:|-------------------------|------------|------------------------|
    
    e:|-------------------------|------------|------------------------|
    B:|-------------------------|------------|------------------------|
    G:|-------------------------|------------|------------------------|
    D:|-------------------------|------------|------------------------|
    A:|-------------------------|------------|------------------------|
    E:|-------------------------|------------|------------------------|
    
    e:---------0--------------|---------0--------------|---------0--------------|
    B:------0-----0-----------|------0-----0-----------|------0-----0-----------|
    G:---3-----------3-----3--|---3-----------3-----3--|---3-----------3-----3--|
    D:4-----------------4-----|3-----------------3-----|2-----------------2-----|
    A:------------------------|------------------------|------------------------|
    E:------------------------|------------------------|------------------------|
    
    e:------------------------|------------------------|------------------------|
    B:------------------------|------------------------|------------------------|
    G:------------------------|------------------------|------------------------|
    D:------------------------|------------------------|------------------------|
    A:------------------------|------------------------|------------------------|
    E:------------------------|------------------------|------------------------|
    
    e:---------0--------------|---------0--|---------0--------------|
    B:------0-----0-----------|------0-----|------0-----0-----------|
    G:---3-----------3-----3--|---3--------|---3-----------3-----3--|
    D:1-----------------1-----|0-----------|1-----------------1-----|
    A:------------------------|------------|------------------------|
    E:------------------------|------------|------------------------|
    
    e:------------------------|------------|------------------------|
    B:------------------------|------------|------------------------|
    G:------------------------|------------|------------------------|
    D:------------------------|------------|------------------------|
    A:------------------------|------------|------------------------|
    E:------------------------|------------|------------------------|…
  • Tuning: Eb(Eb,Ab,Db,Gb,Bb,Eb)                  
    
    Intro: (Fade in)
                      Disintegration you bastard
    E--------------------------|-----------------------|
    B--------------------------|-----------------------|
    G--------------------------|-----------------------|
    D--(2)---------------------|--(2)------------------|
    A--(2)---------------------|--(2)------------------|
    E--(0)---------------------|--(0)------------------|
    
    Riff…
  • Tuning E(E,A,D,G,B,E)
    Verse:
    
    E|-----------------------------------------------------------|
    A|-----------------------------------------------------------|
    D|-----------------------------------------------------------|
    G|-----------------------------------------------------------|
    B|-3-3-3-3-3-3-3--4-4-4-4-4-4-4--6-6-6--4-4-4--3-------------|
    E|-1-1-1-1-1-1-1--2-2-2-2-2-2-2--4-4-4--2-2-2--1-------------|
    
    
    Chorus:
    |-------------------------------------------------------------------|
    |--------------------------------------------4-4-4-4-4-4-4----------|
    |-------------------------------------------------------------------|
    |-3-3-3-3-3-3-3--8-8-8-8-8-8-8--6-6-6-6-6-6-6-----------------------|
    |-1-1-1-1-1-1-1--6-6-6-6-6-6-6--4-4-4-4-4-4-4-----------------------|
    |-------------------------------------------------------------------|…
  • Tuning: Eb(Eb,Ab,Db,Gb,Bb,Eb)
    
    Intro (and chorus also)
    |--------------------------------------------------------------------------|
    |--------------------------------------------------------------------------|
    |--------------------------------------------------------------------------|
    |-------------------------2------5-----------------------------------------|
    |---*---4--------3--------0------3-----------------------------------------|
    |--5323-2-225323-1-225323---5323-------------------------------------------|
    PM…
  • Intro: 
    and
    
    VERSE:
    Bb|-9--9--9--9--9--4-4-4-6-6------------------------------------|
    Eb|--------------------------5-5-5-----------------------------|
    CHORUS: 2x
    Bb|-7--5--0------------------------------------------------|
    Eb|----------2---------------------------------------------|
    Verse
    Chorus…
  • Tuning: Eb(Eb,Ab,Db,Gb,Bb,Eb)
    
    
    Fig. 1
    |-----------------------------------------------------
    |-----------------------------------------------------
    |-----------------------------------------------------
    |----------5-------7---6---5--------------------------
    |--4-6-7-4---7-4-6---6---6---7-6-5--------------------
    |-----------------------------------------------------
    	Play…
  • Tune down 1/2 step (Eb,Ab,Db,Gb)
    
     166 bpm
     9/8
    |-------------------|-------------------|-------------------||
    |-------------------|-------------------|-------------------||
    |-------------------|-------------------|-------------------||
    |-2-2-2-2-----2-----|-2-2-2-2-----2-----|-2-----2-2-2-2-----||…
  • Solo 1
      play 4 times
    eb:20-18-17----|17-18-20-17h18p17-----------------------------------------|
    Bb:---------20-|------------------20-17-18-17-----------------------------|
    Gb:------------|------------------------------20-17-18-17-----------------|
    Db:------------|------------------------------------------20-17-18-17-----|
    Ab:------------|------------------------------------------------------20-|
    Eb:------------|----------------------------------------------------------|
    
    eb:-----------------------------------------------------------------------------15-18b|
    Bb:------------------------------------------------------------------12-13-15/18------|
    Gb:---------------------------------------------------12-15b-12-13-15-----------------|
    Db:------------------------------------12h14-12-13-15---------------------------------|
    Ab:------------------12-14-15-12-14-15------------------------------------------------|
    Eb:12-13-15-12-13-15------------------------------------------------------------------|…
  • :------------------------------17------------------------------|
    :19b-19b-19b-19b-19-19b-19b~~-------------10h11p10----10h11p10--|
    :21b-21b-21b-21b----21b-21b~~-------11-12----------12-----------|
    :---------------------------------------------------------------|
    :---------------------------------------------------------------|
    :---------------------------------------------------------------|…
  • Eb, Ab, Db, Gb, Bb, Eb
    
    GTR1 Intro
    ----------------------------------------|
    ----------------------------------------|
    ----------------------------------------|
    ----------------------------------------|
    |2----7p5----8p7---10p8---2----7p5----8p7----5--3---|
    |0-00-----00----00-----00-0-00-----00-----00-3--1---|…
  • e----------------------------------------------|
    B----------------------------------------------|
    G----------------------------------------------|
    D8---8---8---8---------------------------------|
    A7---7---7---7---------10--|--------10---10------8---8---8-|
    E|---0---0--------------------0----0---|---0----0----0---0---0---0---0-|
    
    
    
    e-----------------------------------------------|
    G-----------------------------------------------|
    D8---8---8---8----------------------------------|
    A7---7---7---7---------10-|------10--------10--------6----7-|
    E|---0---0--------------------0----0--|-0----0----0----0----0----0----0-|
    
    
    
    e--------------------------|------|
    B--------------------------|------|
    G--------------------------|------|
    D--------------------------|------|
    A|-------10--------10--------6----6----|--7---|
    E|--0----0----0----0----0----0----0----|--0---|
    
    riff…
  • Tune down 1 half step:
    Eb Ab Db Gb Bb Eb
    
    Intro: w/ sound efx
    
    e-----------------------------------------------------------------
    b-----------------------------------------------------------------
    g-----------------------------------------------------------------
    d-----------------------------------------------------------------
    a-----------------------------------------------------------------
    e-0---------------------------------------------------------------
    
    Riff…
  • Intro
    |----------------------------------------------
    |----------------------------------------------
    |----------------------------------------------
    |-------10/9-10/9----10/9-10/9-----10/9---12---
    |--------8/7--8/7-----8/7--8/7------8/7---10---
    |--0--0------------0-------------0-------------…
  • Tune down 1/2 step (Eb,Ab,Db,Gb)
    
     140 bpm
         12/8
    -------|-------------------------|-------------------------|
    -------|-------------------------|-------------------------|
    -------|-------------------------|-------------------------|
    -------|-0-----------------------|-43---------------------|
    
    |-------------------------|-------------------------|
    |-------------------------|-------------------------|
    |-------------------------|-6-----6-----------------|
    |-43---------------------|-------------------------|
    
    |-------------------------|-------------------------|
    |-------------------------|-------------------------|
    |-------------------------|-------------------------|
    |-0-----------------------|-43---------------------|…
  • eb:--------------------------------------------------------------------------------------|
    Bb:-/5~---------5h7p5-------5------------------------------------------------------------|
    Gb:-------7-----------7--------7----5--5--5----4---------------18b~~~~-----------------|
    Db:--------------------------------------------------5----------------------15h17--14~~-|
    Ab:--------------------------------------------------------------------------------------|
    Eb:--------------------------------------------------------------------------------------|
    
    
    eb:---------------------------------15-17-19---21b----22b-|
    Bb:------------------15-17-15-17-19-----------------------|
    Gb:----------14-16-17-------------------------------------|
    Db:-14-16-17----------------------------------------------|
    Ab:-------------------------------------------------------|
    Eb:-------------------------------------------------------|
    
    
    eb:-21-18-19-21-22-----------------------------------------------|
    Bb:----------------21-19-18--------------------------------------|
    Gb:-------------------------21-19-18-----------------------------|
    Db:----------------------------------21-19-18--------------------|
    Ab:-------------------------------------------21-19-18-----------|
    Eb:----------------------------------------------------21-19-18/-|
    
    
    eb:-3-times-*-3-times-*-3-times-*-3-times-*-3-times-*-3-times-*
    Bb:-------t-*-------t-*-------t-*-------t-*-------t-*-------t-*
    Gb:--12--14-*--11--13-*--14--16-*--13--15-*--16--18-*--15--17-*
    Db:---------*---------*---------*---------*---------*---------*
    Ab:---------*---------*---------*---------*---------*---------*
    Eb:---------*---------*---------*---------*---------*---------*
    
    
    eb:--2-times-------|---2-times------|---2--times-------|
    Bb:---14--16-------|----17--19------|-----18--21-------|
    Gb:--------t-------|---------t------|----------t-------|
    Db:----------------|----------------|------------------|
    Ab:----------------|----------------|------------------|
    Eb:----------------|----------------|------------------|
    
    
    eb:--21b-------------------------|
    Bb:------------------------------|
    Gb:------------------------------|
    Db:------------------------------|
    Ab:------------------------------|
    Eb:------------------------------|…
  • Verse Riff
    
    |---------------------------------------------------|
    |---------------------------------------------------|
    |--------10p9-----------10p9-----------10p9---5---7-|
    |0-0-0----------0-0-0----------0-0-0----------------|
    
    
    Chorus…
  • DROPPED D TUNING
    
        --------------repeat 8 times----------------------
    eb:|-----------------------|--------------------------|----------------------|
    Bb:|-----------------------|--------------------------|----------------------|
    Gb:|-----------------------|---this-part-changes-with-some-pm-or-hammer-pull-|
    Db:|-----------------------|--------------------------|----------------------|
    Ab:|0-----1-----2-----3p2-3|-0-----1-----2------------|----------------------|…
  • Intro
    |-------0-------0-------0-------0-------0-------0-------0-------|
    |-----0---0---0---0---0---0---0---0---0---0---0---0---0---0-----|
    |---4-------4-------3-------3-----------------------------------|
    |-----------------------------------4-------4-------5-----------|
    |---------------------------------------------------------------|
    |---------------------------------------------------------------|
    
    |-------0---------|
    |-----0---0-------|
    |-----------------|
    |---3-------------|
    |-----------------|
    |-----------------|
    W/…
  • Tune down a half step
    
      intro
    |---------------------------
    |---------------------------
    |---------------------------
    |--4/5--4/5--4/5--4/5-------
    |--2/3--2/3--2/3--2/3-------
    |-----------------------8-a slide or pick scrape…
  • Tuning: Eb(Eb,Ab,Db,Gb,Bb,Eb)                  
    
    Fig. 1
    |------------------------------------------------------
    |------------------------------------------------------
    |------------------------------3-----------------------
    |--2-----2-----4-5-2-----2-----3---2-----2-----4-5-----
    |--2-----2-----4-5-2-----2-----1---2-----2-----4-5-----
    |--0-000-0-000-2-3-0-000-0-000-----0-000-0-000-2-3-0-0-
    
    |----------
    |----------
    |--3-----5-
    |--3-----5-
    |--1-----3-
    |------0---
    End…
  • Tuning Eb(Eb,Ab,Db,Gb,Bb,Eb)
    
    RIFF A----------------------------~~ 
    |---------------|-------------------| 
    |---------------|-------------------|
    |---------------|-------------------| 
    |---------------|-------------------|…
  • solo
    eb:----------------------------------------15-16-18-16-15------------------------------|
    Bb:-----15--18b--18b~~~-----------15-16-18-----------------18-15-18b---18b~~~----------|
    Gb:-/17------------------15-16-18------------------------------------------------------|
    Db:------------------------------------------------------------------------------------|
    Ab:------------------------------------------------------------------------------------|
    Eb:------------------------------------------------------------------------------------|
    
    
    
    eb:-----------------------------------------------------------------|
    Bb:-15-18-15--------------------------------------------------------|
    Gb:----------18-17-15-----------------------------------------------|
    Db:-------------------18-17-15--------------------------------------|
    Ab:-------------------------------15-15-15-14~~~--------------------|
    Eb:------------------------------------------------17-17-17-16~~~---|
    
    eb:------------------------------------------------------|
    Bb:------------------------------------------------------|
    Gb:-----------------13-16-15-13--------------------------|
    Db:-----------------------------16-15-13-----------------|
    Ab:-15-15-15-14~~~-----------------------16-15-13--------|
    Eb:------------------------------------------------16-13-|
    
    
    eb:---------------------------------------------------|
    Bb:---------------------------------------------------|
    Gb:---------------------------------------------------|
    Db:---------------------------------------------------|
    Ab:-15-15-15-14~~~------------------15-15-15-14~~~----|
    Eb:-----------------17-17-17-16~~~--------------------|
    
    
    eb:------------------------------16-16-15----19-19-18---21b---21b~~~--|
    Bb:---------------------15-15-14--------------------------------------|
    Gb:-----------14-14-13------------------------------------------------|
    Db:-15-15-14----------------------------------------------------------|
    Ab:-------------------------------------------------------------------|
    Eb:-------------------------------------------------------------------|…
  • Tuning: Eb (half step down)
    
    Fig. 1
    e|---------------------------------------------------------------
    B|---------------------------------------------------------------
    G|---------------------------------------------------------------
    D|---------------------------------------------------------------
    A|--2----3-2------2h3p2p0----------------------------------------
    E|----00-----0000------------------------------------------------
    
    Fig.…
  • Rhy.Fig.1                                            End Rhy.Fig.1
    e|---------------------------------|--------------------------------|
    B|---------------------------------|--------------------------------|
    G|---------------------------------|----------------0---1-----------|
    D|-----0---1-----------2---3-------|--------1---0---0---1-----------|
    A|-------------0---1-----------2---|3---3-------------------0---1---|
    E|-3-------------------------------|--------------------------------|…
  • Tuning: Tuned down to E flat (Eb, Ab, Db, Gb, Bb, eb) 
    
    Intro (Bass) 
     
    Verse 
    [----------------------------------] 
    [----------------------------------] 
    [--5----7----8----5----2----3------] 
    [--5----7----8----5----2----3------]…
  • Fig. 1a,       
    |-----------------------------------------------------
    |-----------------------------------------------------
    |-----------------------------------------------------
    |----------9---10-----------9---10-----------9---10---
    |------7----------------8----------------7------------
    |--0----------------0----------------0----------------…
  • Tuning Eb(Eb,Ab,Db,Gb,Bb,Eb)
    
    This is a very fast song.
    
    Verse:
        Aaaaahh...   I'm sorry for something i didnґt do...
    Eb|-----------------------------------------------------|
    Ab|-----------------------------------------------------|
    Db|-----------------------------------------------------|
    Gb|------------------7------10--------------------------|
    Bb|--------------5---5--8---8---------------------------|
    Eb|--------------3------6-------------------------------|
    
    
    Chorus:…
  • Solo 1
    eb:21b-21b-21-19h21p19----19-21b-21-19h21p19---------------------------------------|
    Bb:--------------------21--------------------21-18h20p18---------------------------|
    Gb:------------------------------------------------------20-18h20p18---------------|
    Db:------------------------------------------------------------------20-18h20p18---|
    Ab:------------------------------------------------------------------------------20|
    Eb:--------------------------------------------------------------------------------|
    
    eb:------------------------------------------------------12-14-15-14-12-|
    Bb:----------------------------------------12-13-12-13-15---------------|
    Gb:-------------------------------12-14-15------------------------------|
    Db:----------------------12-14-15---------------------------------------|
    Ab:----------12-13-12-15------------------------------------------------|
    Eb:-12-13-15------------------------------------------------------------|
    
    
    eb:----------------------------------------------------------------------|
    Bb:-15-13-12-13-12-------------------------------------------------------|
    Gb:----------------14-12--3b--3b--3b-3b-3b--3-2-3-5-3-2------------------|
    Db:-----------------------------------------------------5-2-3-5-3-2-3-2--|
    Ab:----------------------------------------------------------------------|
    Eb:----------------------------------------------------------------------|
    
    eb:------------------------------------------------------15-17-19-------------|
    Bb:---------------------------------------------15-16-18----------18-15-16-15-|
    Gb:-----------------6-7-9----------11-12-14-12-------------------------------|
    Db:-----------5-6-8--------9-10-12--------------------------------------------|
    Ab:-5-3-2~~~------------------------------------------------------------------|
    Eb:---------------------------------------------------------------------------|…
  • Tuning: Eb(Eb,Ab,Db,Gb,Bb,Eb)                  
    
    
    E--------------------------------------------------
    B--------------------------------------------------
    G--------------------------------------------------
    D-------------9-----------------------------------
    A-2-2-2-2-2-2-7--2-2-2-2--10~---7~----------------
    E-0-0-0-0-0-0-----0-0-0-0--------------------------
    PM...........…
  • play 5 times  play 4 times
    eb:|-------------------------|-------------------|-------------------------|
    Bb:|-------------------------|-------------------|-------------------------|
    Gb:|-------------------------|-------------------|-------------------------|
    Db:|-9-7-9-------------------|9-7-9--------------|-------------------------|
    Ab:|-7-5-7-------------------|7-5-7--------------|-999999999-9-8-777777777-|
    Eb:|-------0000000000000-----|------000000000000-|-777777777-7-6-555555555-|…
  • Tuning Eb(Eb,Ab,Db,Gb,Bb,Eb)
    
    
    Riff 1:
    E-----------------------------------------------|
    B-----------------------------------------------|
    G-----------------------------------------------|
    D-----7--5--4-----------------------------------|
    A--7--5--3--2-----------------------------------|
    E--5-----------5-5-5-5-5-5-5-3-5-5-5-5-5-5-5-5--|
    
    Riff…
  • Tuning Eb(Eb,Ab,Db,Gb,Bb,Eb)
    
    Intro:  8x
    
    Eb|------------------------------------------------|
    Ab|------------------------------------------------|
    Db|------------------------------------------------|
    Gb|------------------------------------------------|
    Bb|----7-5-4-5-------------------------------------|
    Eb|--0--0-0-0--------------------------------------|
    
    
    Verse:…
  • Rhy. Fig. 1
    |------------------------------------|-----------------------|
    |------------------------------------|-----------------------|
    |-------------------6p3--------------|-4----------------5--4-|
    |-3-3-3-3--3-3-3-3------3-3--3-3-3-3-|-4--3-3--3-3-3-3--3--2-|…
  • Intro
    
                              4x¦                          3x¦
    Eb--------------------------¦----------------------------¦---------------
    Bb--------------------------¦----------------------------¦---------------
    Gb--------------------------¦----------------------------¦---------------
    Db----4-2-------4-2-------4-¦----4-2---------4-2-------4-¦----4-2--------
    Ab--------4-3-------4-3---2-¦--------4-3---------4-3---2-¦--------4-3----
    Eb-2----------2---------2---¦-0-----------2----------2---¦-2-------------…
  • Intro                           1,2,3   4
    ----------------------------|----------|------|
    ----------------------------|----------|------|
    -7------2-------3--7------2-|----------|------|
    -0--0-0---3---3----0--0-0---|3x----7---|-3----|
    
    Pre…
  • Intro:
    ------
    Riff 1: (Play twice)
    --------------------
    
    
        . . .   . .                 .    . . .   . .                 .
    -------------------------------||
    -------------------------------||
    -------------------------------||
    ||5-------5-----5---5-5-5-5-5-9---|8-------8-----8---8-8-8-8-8-7---||
    ||7-------7-----7---7-7-7-7-7-7---|7-------7-----7---7-7-7-7-7-0---||
    ||--0-0-0---0-0-----------------0-|--0-0-0---0-0-----------------0-||
    
    
    
    Variation…
  • Main Riff:
    G:------------------
    D:------------------
    A:------------------
    D:-00000000-1-02-01-
    
    Bridge1/2:
    G:----------------------
    D:----------------------
    A:----------------------
    D:-03003003200300300320-
    
    After bridge…
  • play 4 times
    e:|-------------------------------------------------------------|
    B:|-------------------------------------------------------------|
    G:|-------------------------------------------------------------|
    D:|-------------------------------------------------------------|
    A:|---------7-----------7-8-----------7-8-10-8-----8-7----------|
    E:|-0-0-0-0-----0-0-0-0-------0-0-0-0----------10---------------|
    
    
    
    e:------------------------|
    B:------------------------|
    G:------------------------|
    D:-14h15p14h15p14h15p14etc|
    A:------------------------|
    E:------------------------|
    
    
    solo…
  • Solo 1
    :2-5-2--5-2-525252-52-5-2-5-2-5-2-5-2-5-2-5-2-5-2-5-2-5|
    :------------------------------------------------------|
    :------------------------------------------------------|
    :------------------------------------------------------|
    :------------------------------------------------------|
    :------------------------------------------------------|
    
    
    
    :2-5-2-5-2-/7~~~~-7-8---------------------7-8--11-12-11~~~-|
    :---------------------10-8------------7-8------------------|
    :--------------------------9-8~~~-8-9----------------------|
    :----------------------------------------------------------|
    :----------------------------------------------------------|
    :----------------------------------------------------------|
    
    
    
    :-/14-17-14-17-14-17-14-17-14-17-14-17-14-17-14-18b-18b-18b-18b~~~-|
    :-------------------------------------------------------------------|
    :-------------------------------------------------------------------|
    :-------------------------------------------------------------------|
    :-------------------------------------------------------------------|
    :-------------------------------------------------------------------|
    
    
    
    solo…
  • Tuning Eb(Eb,Ab,Db,Gb,Bb,Eb)
    
    Intro:  4x
    Eb|----------------------------------------------|
    Ab|----------------------------------------------|
    Db|----------------------------------------------|
    Gb|-12-12-12-12--11-11-11-11--9-9-9-9-9-9--------|
    Bb|-10-10-10-10--9--9--9--9---7-7-7-7-7-7--------|
    Eb|----------------------------------------------|
    
    Verse:…
  • Guitar is tuned (low to high) Eb,Ab,Db,Gb,Bb,Eb.
    
     intro: drums
    
      fig. 1 (play 2 times) :
    
    Eb:-----------------------------------------------|
    Bb:-----------------------------------------------|
    Gb:-----------------------------------------------|
    Db:-----------------------------------------------|
    Ab:-2-----------5------------2----------5---------|
    Eb:-2--2--2--2-----2--2--2---2--2--2--2---2--2--2-|…
  • Tuning: Eb(Eb,Ab,Db,Gb,Bb,Eb)
    
    Intro.-
    |-----------------------------------|
    |-----------------------------------|
    |-9------8------------7-------------|
    |-9------8------------7-------------|
    |-7------6-----6h9p6--5-------------|
    |---0000---00-----------0000-6-5----|…
  • -|------------|----------|--------------------------------------------------|-
    -|------------|----------|--------------------------------------------------|-
    -|------------|----------|--------------------------------------------------|-
    -|---7--------|---7------|--------------------------------------------------|-
    -|-----7-8----|-----7-8-7|--------------------------------------------------|-
    -|-0----------|-0--------|--------------------------------------------------|-…
  • Solo 1
           -----------
    eb------------------------------17b-17b------------------------------------------*
    Bb-17-15b-15-15-15--17p15-17p15---------17p15-17p15-17b-15h17p15----15-----------*
    Gb---------------------------------------------------------------16----16-16b-16b*
    Db-------------------------------------------------------------------------------*
    Ab-------------------------------------------------------------------------------*
    Eb-------------------------------------------------------------------------------*
    
    eb--------------------------------------------------------7-10-7-*
    Bb----------------------------------------------7-10-7-10--------*
    Gb--------------------------------------7-9-7-9------------------*
    Db-15-12-13-12-13--------------7-9-7-9--------------------------*
    Ab------------------7-10-7-10-7----------------------------------*
    Eb---------------------------------------------------------------*…
  • Tune down 1/2 step
    
    (Intro:drums)
    
    l----------------------------------l------------------------------4/3--l
    l-----------------3-----3-----6/5--l------------------3-----3-----2/1--l 
    l-0-00000-0-00000-1-000-1-000-4/3--l--0-00000-0-00000-1-000-1-000------l…
  • Tuning: Eb(Eb,Ab,Db,Gb,Bb,Eb)                  
    
    
    Fig. 1
    |-----------------------------------------------------
    |-----------------------------------------------------
    |-----------------------------------------------------
    |--------------------------------------------5--------
    |--------------------------------------------5--------
    |--2-2-2-5-3-2-2-2-2-3-2-0-2-2-2-5-3-2-2-2-2-3--------…
  • Starting Tempo: 130 bpm
    
    Intro Riff
    Ab|2-----------------------4-5-----|----------------5-------5-8-----|
    Eb|0-----------------------2-3-----|----------------3-------3-6-----|
      |                                |…
  • D TUNNING
       
                                enter my mind can you stop the rage...
              play 4 times       play 8 times
    eb:|-----------------------|----------------------|
    Bb:|-----------------------|----------------------|
    Gb:|-----------------------|----------------------|
    Db:|-----------------------|----------------------|
    Ab:|-15-------7-6-6-6-6-6-|-15------7-6-6-6-6-6-|…
  • DROPPED D TUNING
    
                  play 4 times                       play 4 times
    dist.
    |---------10-------------11--|-----------------------------|--------------------|
    |------8------8-------8------|---3------2------6-------9---|-----3--------4-----|
    |----------------------------|-0---0--0---0--0---0--0----0-|--0-----0--0--------|
    |----------------------------|-----------------------------|--------------------|
    |-10-------------10----------|-----------------------------|--------------------|
    |----------------------------|-----------------------------|--------------------|…
  • SOLO 1
    :--------------------------16---------17---------19------21~~~--|
    :-21B~-21B~-21B~-21AH--/15----15--/16----16--/17----17----------|
    :-21B~-21B~-21B~-21AH-------------------------------------------|
    :---------------------------------------------------------------|
    :---------------------------------------------------------------|
    :---------------------------------------------------------------|
    
    
    SOLO…
  • Tuning: Eb (half step down)
    
    
    Riff 1 x4
    e|-----------------------------------------------------------|
    B|-----------------------------------------------------------|
    G|-----------------------------------------------------------|
    D|------------------------------------------------------7-6--|
    A|--6------------6------------6------6------6-------4-5------|
    E|---33333333333--33333333333--33333--33333---0-5-6----------|
    
    Fill…
  • Solo1
    eb:-------------------17-17b~~--14b~~-14~~--14-15-14-15-17-14h15p14------|
    Bb:--15b-15b~~--15b~~----------------------------------------------------|
    Gb:--14b-----------------------------------------------------------------|
    Db:----------------------------------------------------------------------|
    Ab:----------------------------------------------------------------------|
    Eb:----------------------------------------------------------------------|
    
    eb:---------------------------------------------------------------------|
    Bb:17-14h15p14-14-14-15-14----------------------------------------------|
    Gb:------------------------17-14-16-17-16-14---------------------8-9-8-9|
    Db:----------------------------------------------9-8--8-9-8-9-11--------|
    Ab:---------------------------------------------------------------------|
    Eb:---------------------------------------------------------------------|
    
    eb:---------------------------------21~~~---|
    Bb:----------------------------19----------|
    Gb:-11-8-9-8-------------12---18----------|
    Db:----------11-8-9-8-9--12----------------|
    Ab:-----------------------------------------|
    Eb:-----------------------------------------|
    
    
    
    solo…
  • Tuning: Eb(Eb,Ab,Db,Gb,Bb,Eb)
    
    Intro:
    
     Gtr. I (Riff A)
    |---------------------------------|---------------------------------|
    |---------------------------------|---------------------------------|
    |---------------------------------|---------------------------------|
    |---------------------------------|-----------------8-------7-------|
    |---------------------------------|-----------------8-------7-------|
    |-3^1^0-0-0-0-3^1^0-0-0-0-3^1^0-0-|-0-0-3^1^0-0-0-0-6-------5-------|
    
    |---------------------------------|---------------------------------|
    |---------------------------------|---------------------------------|
    |---------------------------------|---------------------------------|
    |---------------------------------|---------.---.-------------------|
    |-----------------------------.---|-.---.---2---1---.---.---.---.---|
    |-3^1^0-0-0-0-3^1^0-0-0-0-3^1-0---|-0---3-----------0---3---2---1---|…
  • (Palm mute on all periods)
    (2 guitars)
    PM. .   .  h    . .   .     . .      . .   .  h    . .   .      . .
    [----------------------------------|-----------------------------------]
    [----------------------------------|-----------------------------------]
    [.---------------------------------|-----------------------------------]
    [.----------------------10-------8-|-----------------------12-------11-]
    [---------5^7------------8-------6-|---------5^7-----------10--------9-]
    [-0-0---0---0---0-0---0-----0-0----|-0-0---0---0---0-0---0------0-0----]…
  • Tune down 1/2 step
                                                         1st 3 times
    
    D-0-2-----3-1-----0-2-----5-3------0-2-----3-1----|--9/8-----7/6-------
    A-0-2-----2-1-----0-2-----2-2------0-2-----2-1----|--7/6-----5/4-------
    E------0-------0-------0--------0-------0-------0-|8-----7-6-----------…
  • Tune down 1/2 step to Eb Ab Db...
    
    Eb|-----------------------------------------|
    Bb|-----------------------------------------|
    Gb|-----------------------------------------|
    Db|-----------------------------------------|
    Ab|--2-2-2-2-2-2-2-2--3--2-2--3-------------|
    Eb|--0-0-0-0-0-0-0-0--1--0-0--1-------------|…
  • solo
    eb:----------------------------------------15-16-18-16-15------------------------------|
    Bb:-----15--18b--18b~~~-----------15-16-18-----------------18-15-18b---18b~~~----------|
    Gb:-/17------------------15-16-18------------------------------------------------------|
    Db:------------------------------------------------------------------------------------|
    Ab:------------------------------------------------------------------------------------|
    Eb:------------------------------------------------------------------------------------|
    
    
    
    eb:-----------------------------------------------------------------|
    Bb:-15-18-15--------------------------------------------------------|
    Gb:----------18-17-15-----------------------------------------------|
    Db:-------------------18-17-15--------------------------------------|
    Ab:-------------------------------15-15-15-14~~~--------------------|
    Eb:------------------------------------------------17-17-17-16~~~---|
    
    eb:------------------------------------------------------|
    Bb:------------------------------------------------------|
    Gb:-----------------13-16-15-13--------------------------|
    Db:-----------------------------16-15-13-----------------|
    Ab:-15-15-15-14~~~-----------------------16-15-13--------|
    Eb:------------------------------------------------16-13-|
    
    
    eb:---------------------------------------------------|
    Bb:---------------------------------------------------|
    Gb:---------------------------------------------------|
    Db:---------------------------------------------------|
    Ab:-15-15-15-14~~~------------------15-15-15-14~~~----|
    Eb:-----------------17-17-17-16~~~--------------------|
    
    
    eb:------------------------------16-16-15----19-19-18---21b---21b~~~--|
    Bb:---------------------15-15-14--------------------------------------|
    Gb:-----------14-14-13------------------------------------------------|
    Db:-15-15-14----------------------------------------------------------|
    Ab:-------------------------------------------------------------------|
    Eb:-------------------------------------------------------------------|…
  • repeat
    e:--------------------------------------------------------------|
    B:--------------------------------------------------------------|
    G:--------------------------------------------------------------|
    D:-5-4-3-2--5-4-2--5-4-2--5-4-3-2-------------------------------|
    A:-5-4-3-2--5-4-2--5-4-2--5-4-3-2-------------------------------|
    E:-3-2-1-0--3-2-0--3-2-0--3-2-1-0-------------------------------|
    
    
    verse
    e:-------------------------------------|---|
    B:-------------------------------------|---|
    G:-------------------------------------|---|
    D:-------------------------------------|---|
    A:-----3-------3-------3-------3-------|-5-|
    E:-0-0-1-0-0-0-1-0-0-0-1-0-0-0-1-0-0-0-|-3-|
    
    e:-------------------------------------|---|
    B:-------------------------------------|---|
    G:-------------------------------------|---|
    D:-------------------------------------|---|
    A:-----3-------3-------3-------3-------|-6-|
    E:-0-0-1-0-0-0-1-0-0-0-1-0-0-0-1-0-0-0-|-4-|
    
    
    this…
  • DROPPED D TUNNING
    
    BASS AND DRUMS
    Gt 1
    eb:|--------------------|---------------------|--------------------|
    Bb:|--------------------|---------------------|--------------------|
    Gb:|--------------------|---------------------|--------------------|
    Db:|--------------------|---------------------|--------------------|
    Ab:|----------6--5------|----------6--5-------|--------------------|…
  • Tune down 1/2 step to Eb Ab Db Gb Bb Eb
    
    INTRO:
    RIFF 1: (*4 times)
    Gtr.1Eb||-------------------------------------------------|-------------------------------------------------||
         Bb||-------------------------------------------------|--------------------------------------…
  • Fig. 1 
    |----------------------------------- 
    |----------------------------------- 
    |----------------------------------- 
    |------------------3-----2---------- 
    |--5-------4-------------------3---- 
    |----222222--222222--2222--2222--2--…
  • Intro : drums
    
    
    e:----------------|-----------------|-----------------|---------------------|
    B:----------------|-----------------|-----------------|---------------------|
    G:----------------|-----------------|-----------------|---------------------|
    D:-9--------------|--5--------------|-----------------|---------------------|
    A:-7--------------|--3--------------|-5---------------|-7---------9---------|
    E:----------------|-----------------|-3---------------|-5---------7---------|…
  • SOLO 1
      2 TIMES     PLAY 4 TIMES
    eb-16B-16B~~-*---16H20P16-*-----------------------------------------------------*
    Bb-19B-19B~~-*19----------*19-17-19B--------------------------------------------*
    Gb-----------*------------*----------------------------------------------12-14B-*
    Db-----------*------------*----------------------------------12-14-12-14--------*
    Ab-----------*------------*----------------------12-14-12-14--------------------*
    Eb-----------*------------*----------12-15-12-15--------------------------------*…
  • 1[----------------------------------------------]
    2[----------------------------------------------]
    3[----------------------------------------------]    x3
    4[----------------------------------------------]
    5[-0--0-3--3-2--2-1--1-0------------------------]
    6[-0--0-3--3-2--2-1--1-0------------------------]
    
    1[----------------------------------------------]
    2[----------------------------------------------]
    3[----------------------------------------------]
    4[----------------------------------------------]…
  • Riff 1 (0:00-0:01)
    |----------------|
    |----------------|
    |----------------|
    |----------------|
    |-5-2--5-8--5-2--|
    |-3-0--3-6--3-0--|
    
    
    Riff 2  (0:02-0:12) (1:06-1:16)        
    p.m......     play 8x
    |----------------|
    |----------------|
    |----------------|
    |----------9-----|
    |------------8-7-|
    |-000-000--------|
    
    
    Walkback…
  • Tuning: Eb(Eb,Ab,Db,Gb,Bb,Eb)
    
                                PLay 5 times
    |-------||------------------------------||--------------------|
    |-------||------------------------------||--------------------|
    |-------||*----------------------------*||--------------------|
    |-------||*----------------------------*||--------------------|
    |-------||--5-4----8-7-3----------------||-3-4----8-7-3-------|
    |-12-/--||--3-2-0--6-5-1--0-0-0--0-0-0--||-5-2-0--6-5-1-------|
    
    
    ||-----------------------------|----------------------------|
    ||-----------------------------|----------------------------|
    ||*----------------------------|----------------------------|
    ||*----------------------------|----------------------------|
    ||-----------------------------|----------------------------|
    ||--2-1-0--2-1-0--2-1-0--2-1-0-|-2-1-0--5-4-3--4-3-2--3-2-1-|…
  • Tuning: Eb(Eb,Ab,Db,Gb,Bb,Eb)                  
    
    Riff A:
    -----------------------------------------------------------------------------
    --------------------------------(x3)-----------------------------------------
    -----------------------------------------------------------------------------
    --14--14--14--14--14--14--14----14--14--14--15-------------------------------
    --14--14--14--14--14--14--14----12--12--12--13---15--------------------------
    --12--12--12--12--12--12--12---------------------13--------------------------
    
    -----------------------------------------------------------------------------
    -----------------------------------------------------------------------------
    -----------------------------------------------------------------------------
    --14--14--14--14--14--14--14----16--15---------------------------------------
    --14--14--14--14--14--14--14----16--15---------------------------------------
    --12--12--12--12--12--12--12----14--13---------------------------------------
    Repeat…
  • Intro
    
    (Welcome Back.....)
    
       Guitar 1  (Hanneman)
    Eb-----------------------
    Bb-----------------------
    Gb-----------------------
    Db-----------------------
    Ab-----------------------
    Eb-0-0-0-0-0-0-0-0-0-0-0-
       . . . . .…
  • Tuning Eb(Eb,Ab,Db,Gb,Bb,Eb)
    
    Drum intro
    
    E|----------------------------------------------------------|
    B|----------------------------------------------------------|
    G|----------------------------------------------------------|
    D|----------------------------------------------------------|
    A|--2--let…
  • First Riff (Played 3 times)
    
    ---------------------------|
    ---------------------------|
    ---------------------------|
    ---------------------------|
    ---------------------------|
    --0--0--3--3--2--2--1--1---|
    
    Then:
    
    -----------------------------|
    -----------------------------|
    -----------------------------|
    -----------------------------|
    -----------------------------|
    --0--0--3--3--2--0--2--3--3--|
    
    Riff…
  • 1/2 step down
    
    eb
    Bb
    Gb
    Db
    Ab
    EB
    
    solo 1
    :------------------------------10-11-13-10---------------------------------|
    :/10~~~---10-11-10-11-13p11p10-------------13-10-11-13-11-9-8-9-8-9-11-9-8-|
    :--------------------------------------------------------------------------|
    :--------------------------------------------------------------------------|
    :--------------------------------------------------------------------------|
    :--------------------------------------------------------------------------|
    
    :--------14-14-15-12-15----15----|-15-14-15-12-15----15-----|
    :-----------------------15----14-|----------------15----14--|
    :-12b~~--------------------------|--------------------------|
    :--------------------------------|--------------------------|
    :--------------------------------|--------------------------|
    :--------------------------------|--------------------------|
    
    
    :-15-13-12---------------------------------------8-7----------|
    :----------13-12---12-9-10-12-10-9------------9------8--9AH---|
    :-----------------------------------12b----10-----------------|
    :-------------------------------------------------------------|
    :-------------------------------------------------------------|
    :-------------------------------------------------------------|
    
    
    
    solo…
  • Tuning: Eb(Eb,Ab,Db,Gb,Bb,Eb)                  
    
    My name is Kiowa Jackson and this thing took me forever to
    to do so you better.  This is definetley one of Slayerґs best, 
    itґs called Crionics and is from Show No Mercy.
    
    Riff…
  • -|--------------------------------|-------------------|---|-----------------|-
     -|--------------------------------|-------------------|---|-----------------|-
     -|--------------------------------|-------------------|---|-----------------|-…
  • Time signature changes are shown like this:
    |----
    |3:--
    |4:--
    |----
    
    This means to repeat the last two measures:
    ----|//--
    --*-//---
    ---//-*--
    --//|----
    
    As usual, guitars are tuned to Eb.  Hanneman has the left stereo channel.
    
    Starting…
  • Tuning: C# Ab Db Gb Bb Eb
    
    Pm = Palm Mute
    
    
    Intro (with a little distorsion):
    Eb|------------------------------------------|
    Bb|------------------------------------------|
    Gb|------------------------------------------|
    Db|------------------------------------------|
    Ab|-----0-0--------------0-0------6-5--------|
    C#|--0-------6---2----0-------6--------------|
    
    Eb|------------------------------------------|
    Bb|------------------------------------------|
    Gb|------------------------------------------|
    Db|------------------------------------------|
    Ab|-----0-0--------------0-0------3--5-6-5---|
    C#|--0-------6---2----0-------6--------------|…
  • Fig. 1
    ----------------------
    ----------------------
    |--7---6-----------5---4-------3--
    |--7---6---7---6---5---4---5---3--
    |--5---4---7---6---3---2---5---1--
    |----------5---4-----------3------
    
    
    Fig. 2
    ---------------------------
    ---------------------------
    ---------------------------
    ---------------------------
    |------3p2p0-------------3p2p0---------
    |--2222------222222222222------5-2-3-5-…
  • Chords: G#5 F5 E5 G5 F#5
    Tune down half step
    Fast Rock 228
    
    Riff A (Gtr 1)
       G#5                                                    (end Riff A)
    |----------------------------------|---------------------------------|
    |----------------------------------|---------------------------------|
    |----------------------------------|---------------------------------|
    |----------------------------------|---------------------------------|
    |----------------------------------|---------------------------------|
    |--4-4-4-4-4-4-5-5-3-3-3-3-3-3-5-5-|-2-2-2-2-2-2-5-5-1-1-1-1-1-1-1-1-|
    P.M.................................................................
    
    With…
  • Intro:
                                                                      Play 2x
    eb---||(Guitar1)--------------------------------------------||
    Bb----------------------------------||
    Gb----------------------------------||
    Db----------------------------------||
    Ab----------------------------------||
    Eb---||0---0---0---0---0---0---0---0---|0-0-0---0---0-0-0---0---0-0-0---||…
  • Tuning: Eb(Eb,Ab,Db,Gb,Bb,Eb)
    
    Fig. 1
    |-----------------------------------------------------
    |-----------------------------------------------------
    |-----------------------------------------------------
    |-----------------------------------------------------
    |--------------------2---1-------------------1---0-----
    |--4-0-2-5-2-0-3-0-2---2---4-0-2-5-2-0-3-0-1---1------…
  • the 3 small strings are erease when useless
        riff a                                                                      
    E---||-------------------------------------------|------------------------------
    B---||-------------------------------------------|------------------------------
    G---||*-------6-------5--------------------------|-------6-------5--------------
    D---||*------/4------/3--------4--3--2--1--0-----|------/4------/3--------4-----
    A---||----------------------------------------1--|------------------------------
    E---||---0--0----0--0----0--0--------------------|--0--0----0--0----0--0--------…
  • intro 
     e----------------------------------- 
     b----------------------------------- 
     g----------------------------------- 
     d----------------------------------- 
     a----------------------------------- 
     e-2-1-0-1-0--2-1-0--2-1-0-1-0--2-1-0…
  • Intro
    I-------5-4-------------------------I
    I-----6-----------5-4---------------I
    I---------------6-----------4-3-----I x 3
    I-000-------000-------000-5-----4-3-I
    
    I-------5-4---------------------------I
    I-----6-----------5-4-----------------I
    I---------------6-----------4-3-------I
    I-000-------000-------000-5-----4-3-0-I
    
    Rhythm…
  • ---------------------           bar
    :---slowly----------------------------------------------------|
    :-19b------(19)---(19)-------------20----20---20--------------|
    :-----------------------19b-----19----19----19----19~~~--20~~|
    :-------------------------------------------------------------|
    :-------------------------------------------------------------|
    :-------------------------------------------------------------|…
  • KING
                    -----------
    C#:----------------------------------------------------15-17-29-20-22--|
    G#:---------------------------------17--16-17-16-17-19-----------------|
     E:-19B--------7B-7-7-7-7-7--7B~~~-------------------------------------|…
  • intro:                              low harmony part
        E5                       F5    
    ||-----0---------------------------||---------------------------------|
    ||-----0---------------------------||---------------------------------|
    ||---------------------------------||---------------------------------|
    ||--2--------2---------------3--3--||--------------------2------------|
    ||--2-----2-----1>----------…
Наверх