Аккорды «Slipknot»

Slipknot
Состав группы образовался в 1998 году, до этого в составе группы происходили различные изменения. Slipknot являются первыми известными музыкантами из штата Айова за всю историю его существования. Участники группы до этого работали в различных музыкальных коллективах города Де-Мойн. И, как водится в маленьких городках, все эти группы давали свои выступления каждое воскресенье на одной сцене по очереди. Так могло продолжаться очень долго, если бы не честолюбие Шона Крэгана, которое в один прекрасный… Читать полностью... Состав группы образовался в 1998 году, до этого в составе группы происходили различные изменения. Slipknot являются первыми известными музыкантами из штата Айова за всю историю его существования. Участники группы до этого работали в различных музыкальных коллективах города Де-Мойн. И, как водится в маленьких городках, все эти группы давали свои выступления каждое воскресенье на одной сцене по очереди. Так могло продолжаться очень долго, если бы не честолюбие Шона Крэгана, которое в один прекрасный момент подтолкнуло его к идее создания команды, вместе с которой можно было бы взяться за завоевание мировой сцены. Основанием группы считается встреча Пола Грея и Шона Крэгана в 1991 году, тогда же к ним присоединился и Андерс. Потом было набрано ещё несколько человек, состав группы постоянно менялся. Все, кто были в Slipknot были родом из штата Айова и только Пол был из Лос-Анджелеса. В 1992 году состав группы официально составлял 6 человек (Джои, Пол, Шон, Андерс, Грэг, Джош). Тогда ещё не было на их лицах масок, до того момента пока Шон не пришёл в маске, всех это развеселило и идея понравилась остальным участникам.. Группа долго не могла найти места для выступлений, первое время они играли в стрип-барах. Вскоре парни записывают свой первый релиз под названием «Mate, Feed, Kill, Repeat». Релиз вышел в 1996 тиражом в 1000 копий, но пришелся по вкусу поклонникам группы и был распродан полностью. Дыма без огня не бывает: самодеятельный альбом попался на глаза Росу Робинсону, продюсеру Roadrunner Records. Посещение концерта Slipknot произвело на Робинсона еще более сильное впечатление, и новичкам был предложен контракт с лейблом. В 1997 году начался сбор материала для нового альбома «Crowz», почти всю лирику написал Шон. В него должны были войти такие треки как Gently, Do Nothing, Slipknot, Tattered and Torn, Me Inside, Carve, Coleslaw, Scissors, Windows и May 17th, но альбом так и не был издан. Ближе к 1998 году установился состав группы из 9 человек Сид, Джои, Пол, Cuddles, Gnar, 133 Mhz, Шон, Мик, Кори. И наконец к середине 1998 года образовался нынешний состав группы. Изобретенная «фишка» с масками оказалось очень удачным рекламным ходом. Мрачные маски породили большое число разнообразных легенд, которые работали на имидж музыкантов. Например, что маски причиняют им боль, и от того их музыка становится еще злее, а противогаз Сида Уилсона лишает его кислорода, и от этого он испытывает галлюцинации. И вот в 1999 году выходит их дебютный альбом «Slipknot», который в короткие сроки продается тиражом 100 000 экземпляров, а впоследствии становится платиновым (на сегодняшний день продано около 3 млн. копий). Альбом включил в себя 20 треков, половина из которых принадлежала старому Slipknot, которые были переиграны и перепеты в новом стиле. Группа становится сенсацией — несмотря на то, что все центральные радиостанции и музыкальные телевизионные каналы заклеймили Slipknot как «не форматную» команду. Вопреки этому именитые музыкальные журналы, удостаивают музыкантов разнообразных наград. Например, Kerrang! присуждает новичкам титул «Лучшая новая группа», дебютному альбому «Slipknot» — звание «Лучшего альбома 1999 года», в 2000 — премию за лучший сингл Wait & Bleed, лучшее живое выступление, а также удостаивает титула «Лучшая группа в мире» в 2001 году. Metal Hammer так же признал дебютный диск Slipknot «Лучшим альбомом года», группу – «Прорывом года», а Джои Джордисона – «Лучшим ударником». В 2000 году журнал Rolling Stone назвал участников Slipknot «людьми года». В 2000 году группа выпустила первое Home Video - Welcome to Our Neighbourhood, включившее в себя запись концерта из родного Де-Моине, а так же видео: Spit it out, Surfacing, Wait and Bleed и интервью с участниками группы. Отыграв концертный тур по всему миру, группа решает записывать второй альбом. В апреле 2001 года на пресс-конференции был сыгран трек «The Heretic Anthem», это было что-то новое, очень тяжёлое и угарное. Все с нетерпением стали ждать выпуска второго альбома. И вот в 2001 году Slipknot выпустили диск «Iowa», который состоял из 14 треков. Меняются маски участников группы и вместе с ними меняется стиль песен. В это время выходят два новых клипа Left Behind и My Plague «Iowa» был номинирован на получение премии «Grammy» в категории «Лучший хард-рок-исполнитель». А так же альбом сразу занял первое место в Hard Music and Alternative Charts (США) и третью строчку в числе 200 самых продаваемых альбомов по версии Billboard, так как за первую неделю продажи разошелся в количестве 254 000 копий. Группа отправляется в гастрольный тур с участием различных исполнителей тяжелой музыки. К этому времени в России стали появляться первые фанаты группы. Летом стали появляться первые новости: группа собирается вместе, и наконец приступает к подготовке материала для нового альбома. Дата релиза была назначена на 15 апреля 2003 года, но неоднократно она переносилась. Slipknot держал своих поклонников в предвкушении выхода нового альбома, а репортеров радовал скандалами: летом 2003 года бас-гитарист Пол Грей, попав в автомобильную аварию, был арестован, так как был пьян; к тому же полиция нашла в его машине кокаин и марихуану. Подошёл знаменитый Jagermeister Tour, где Slipknot совместно выступили с группами Fear Factory, Chimaira и частично с Devildriver. Дата альбома была назначена на 25 мая. В 2004 году музыканты группы дали согласие на использование нескольких своих треков и трехминутного видеоролика в компьютерной игре «MTX: Mototrax». Композиции, использованные в игре, вошли в новый альбом Slipknot «Vol. 3: (The Subliminal Verses)». Новый альбом появился в интернете 13 мая и вызвал неоднозначную реакцию, т.к. был изменён стиль песен и теперь группа не была похожа на прежний Slipknot. Так же сильно меняется стиль в одежде участников и меняются маски. Многие фанаты неоднозначно восприняли такие песни как Circle, Vermilion Pt.2, Danger-Keep Away, потому что эти песни написаны и исполнены не в привычном для группы стиле, а являются совершенно спокойными песнями. Окончательно же альбом вышел 25 мая. Когда же закончился их тур они снова разбежались и пока точно не известно когда они соберутся вместе, чтобы записать новый альбом. В 2006 группа получила «Грэмми» в категории «Лучшее метал-выступление» за композицию Before I Forget. «Я рад, что мы номинированы на грэмми, и я уверен, что мы выиграем в этом году», заявлял Шон Крэган, ещё не зная об успехе. Затем 5 декабря 2006 года вышел новый долгожданный двухдисковый DVD «Voliminal: Inside the Nine», режиссёром которого является Шон, этот DVD стал платиновым. Видео на дисках было снято во время тура после альбома «Vol. 3: (The Subliminal Verses)». Сам Шон сказал, что причиной, для выпуска этого DVD, послужило то, что он подумал о том что группа начинает разваливаться. «Именно это и есть причина номер один - некоторые из нас не виделись почти два года. Мне стало интересно - что же происходит на самом деле, потому что всё это выглядело как конец Slipknot, но ведь - я один из тех, кто всё это начал», - сказал Шон. Крэган добавил, что этот DVD это взгляд на 10-ти летнюю историю Slipknot со стороны. Весь материал был снят на профессиональную камеру. На втором диске Voliminal можно найти интервью с участниками группы, видео с телевизионных шоу, а так же клипы на песни с альбома «Vol. 3: (The Subliminal Verses)». Проходит ещё 2 года и Slipknot приступает к записи нового альбома под названием «All Hope Is Gone» вместе с продюсером Дэйвом Фортманом и Колином Ричардсоном. В июле 2008 году начинают появляться первые треки с альбома и наконец в конце августа выходит долгожданный студийный альбом. Летом группа отправляется в тур Mayhem по северной Америке. Этой осенью группа побывала в России 5 ноября. Они привозили оборудование на 3 самолетах. Как признается Кори: «Мы давно хотели побывать в Москве, однако я был с здесь со Stone Sour, но город осмотреть не успел. Мы приготовили для наших российских фанатов грандиозное шоу». И действительно, оно было потрясающим. Группа запретила съемку на их концерте, а это может означать выход нового DVD c концертным туром. 24 мая 2010 года, в 22 часа в отеле Town Plaza в Урбандэйле (пригород Де-Мойна, Айова) Пол Грей был обнаружен мертвым. В полиции сообщили, что тело 38-летнего басиста группы обнаружил сотрудник гостиницы. 21 июня были обнародованы результаты вскрытия: по результатам Пол умер от остановки сердца. Состав 1995 года: Андерс Кользефини — вокал, перкуссия. Пол Грэй — бас-гитара, вокал. Джои Джордисон — ударные. Шон Крэхан — перкуссия, вокал. Джош Брэйнард — гитара. Донни Стили — гитара. Состав с 1999 года по 2010: Сид Уилсон — Ди-джей. Джои Джордисон — ударные. Пол Грэй — бас-гитара, бэк-вокал. Крис Фен — перкуссия, бэк-вокал. Джим Рут — гитара. Крэйг Джонс — семплы. Шон Крэхан — перкуссия, бэк-вокал. Мик Томсон — гитара. Кори Тейлор — вокал. Состав с 2011 года: Сид «Monkeyboy» Уилсон — Ди-джей. Джои «Superball» Джордисон — ударные. Крис «Picklenose» Фэн — перкуссия, бэк-вокал. Джеймс «Peach» Рут — гитара. Крэйг «133 Mhz», Джонс — клавишные, семплы. Шон «Clown» Крэхан — перкуссия, бэк-вокал. Мик «Log» Томсон — гитара. Кори Тейлор — вокал. Донни Стили — бас-гитара. Бывшие участники: Патрик Ньювирс — гитара (1991-1992) Андерс Кользефини — вокал/перкуссия (1995-1997) Донни Стили — гитара (1995-1996) Джон Грин — гитара Кван Нонг — гитара (1995) Джош Брэйнард — гитара (1995-1999) Грэг Уэлтс — перкуссия (1997-1998) Брэндон Дарнер — перкуссия (1998) Пол Грэй✝ - бас-гитара (1995-2010) Скрыть...
Популярные аккорды Slipknot:
алфавиту | просмотрам | случайно
  • tuning: (eBG) B F# B 
    (with heavy strings (heavy bottom) its sounds ok)
    those little strings aren't needed
    
    > slide
    ~ let fade out
    P mute
    
    
    Intro:
    
         1st guitar:
    
    ------------------------------------------
    ------------------------------------------
    ------------------------------------------…
  • Dropped D-Tuning (D-A-D-G-B-E)
    Intro = Verse:
       G#-Riff		    B-riff
    E--------------------I--------------------|
    B--------------------I--------------------|
    G--------------------I--------------------|
    D--6--8--6--6-6-6-6-6I--9-9-9-9-9-9-9-9-9-|
    A--6--6--7--6-6-7-6-7I--9-9-9-9-9-9-9-9-9-|
    D--6--6--6--6-6-6-6-6I--9-9-9-9h8-8-8-8-8-|
    
    G#Riff				B-Riff
    She…
  • Intro :
    
    Guitar 1
    |----------------------------------------------------|
    |----------------------------------------------------|
    |----------------------------------------------------|
    |-0h1---0h1---0h1---0h1----0h1h2h1-------------------|…
  • Chords used
    
    E5 (02245x) or (0799xx)
    D  (xx0232)
    A  (x02220)
    C  (x32010)
    B  (x2444x)
    
    
    Intro: E5 (fade in)
    
    Verse:
    
    E5
    Give me the dust............  Follow me.
    
    Chorus:
    
    D          A          C              B
    All that I…
  • B,F#,B,E,G#,C#
                                          Some delay or something
    C# |------------------15------14---------------------|
    G# |-----12----14------------------------------------|
    E  |-------------------------------------------------|(intro)
    B…
  • Tuning: B F# B E G# C#
    
    #----------------------------------PLEASE NOTE--------------------------------#
    #This file is the author's own work and represents their interpretation of the#
    #song. You may only use this file for…
  • Tuning: B F# B E G# C# (Drop-B)
    
    INTRO
    -------------------------------------------------------------------------------|
    -------------------------------------------------------------------------------|
    -------------------------------------------------------------------------------|
    -------------------------------------------------------------------------------|
    -------------------------------------------------------------------------------|
    -0---0---------------0---1-1-1-1-0---0---0---3///////////13~~~~~---------------|…
  • Chords used:
    D -     xx0232
    C# -    x46664
    Dm -    xx0231
    A -     x02220
    Ab -    466544
    E -     022100
    F# -    244322
    B -     x24442
    C -     x32010
    Bm -    x24432
    F#/Bb - x143xx
    E/G# -  476xxx
    
    
    Intro:
    
    Part…
  • Drop D tuning
    
    (SIC)
    
    Riff 1                                                         
    |-----------------------------------------------------------------|
    |-----------------------------------------------------------------|
    |-----------------------------------------------------------------|
    |-----------------------------------------------------------------|
    |---0-------0-------0---------3-----0-------0-------0---------3---|
    |-0-0---0-0-0---0-0-0---0-0-0-3---0-0---0-0-0---0-0-0---0-0-0-3---|…
  • Tuning: Standard EADGBe
    
    Chords used:
    F#m -  244222
    A -    x02220
    C#/F - 143xxx
    E -    022100
    
    
    Intro: F#m--A-C# x8
    
    
    Verse 1:
        F#m
    Our friends are all hurting 
                                 E
    from moments…
  • Drop down one step: D-G-c-f-a-d
    
    There are several guitars layered in this song, my version is modified for one guitar.
    
    Intro & First Verse (clean guitar)
    
     Bury all your secrets in my skin.
     Come away with innocence,…
  • Вступление:Em G F
    Em           G F
    Sitting in the dark
    Em        G G
    I can’t forget
    Even now I realize the
    time I’ll never get
    Another story of the
    Bitter Pills of Fate 
    I can’t go back again
    I can’t go back again
    But…
  • RIFF #1:
    
    G|---------------------------------------------------------------------------|
    D|---------------------------------------------------------------------------|
    A|---------------------------------------------------------------------------|
    E|---------------------------------------------------------------------------|
    B|-000-111-0000--------------------------------------------------------------|
    
    RIFF…
  • Прежде чем играть Slipknot настройте ваш инструмент таким образом: 1-я струна: C#, 2-ая: 
    G#, 3-я: E, 4-я: B, 5-я: F#, 6-я: B. Для тех, кто не понимает о чем идет речь, состройте 
    четвертую и шестую струны (просто спустите…
  • Guitar 1
    
    E]--19--21-21-21-21-21-21-21
    B]--------------------------
    G]--------------------------
    D]--------------------------
    A]--------------------------
    E]-------------------------- X8
    
    Guitar 2 Interupts
    
    E]--------------------------
    B]--------------------------
    G]--------------------------
    D]--------------------------
    A]--------------------------
    E]--2-3--(3)(3)-3-2-3-------X1
    
    
    E]-------------------------
    B]-------------------------
    G]-------------------------
    D]-------------------------
    A]-------------------------
    E]--(3)(3)-3-2-3-----------X23
    
    Guitars…
  • Drop B: 
    B F# B E G# C#
    
    pm open string
    e------------------------------------------------
    b------------------------------------------------
    g------------------------------------------------
    d------------------------------------------------
    a-65-0-0-32-0-0-65-0-0-32-0-0--0--0--0--0----
    d-65-0-0-32-0-0-65-0-0-32-0-0--0--0--0--0----
    
    trem…
  • Drop B
    B F# B E G# C#
    
    *=harmonics
    
    Riff A
    
    e----------------------------------------------
    b----------------------------------------------
    g----------------------------------------------
    d----------------------------------------------
    a----------------------------------------------
    d-6b--0-6b---0-0h7-7p0-6b--0-6b---0-0h7-7p0----
    
    e----------------------------------------------
    b----------------------------------------------
    g----------------------------------------------
    d----------------------------------------------
    a----------------------------------------------
    d-6b--0-6b---0-0h7-7p0-6b--0-6b---0-0h7-7p0----
    
    Interlude:…
  • Same Tuning here aswell as with People = *** dropped, helps if you have a 5 string.
    
    D|
    A|
    E|
    A| 1--0-0-0-1--0-0-1--0-0-1--0-0-1--0-0-1--0-0-1--0-0-1--0-0-1--0-0-1
    
    D|
    A|
    E|                           (X12)
    A|0-0-1
    
    D|
    A|
    E|…
  • intro/verse 1 distortion
    mick and james
    --------------------------------------------
    --------------------------------------------
    --------------------------------------------
    -0-0-0-0-0----------------------------------
    -0-0-0-0-0----------------------------------
    -0-0-0-0-0-1/2-21--------------------------…
  • Tunning: C#,G#,E,B,F#,b
    
    Intro: 
    Guitar 1:
    |--------------|  |--------------|  |--------------|  |--------------|
    |--------------|  |--------------|  |--------------|  |--------------|
    |--------------|  |--------------|…
  • *Tuning Note*
    
    F# F# B E G# C#
    
    
    Intro: Drums, then
    
    Fig 1. x2
    
    Am(add9)/E
    
    e-8-----8-----8-----8-----8---8-------8-------8-----8-----8-------
    b-0---0-0---0-0---0-0---0-0---0-0-0---0-0---0-0---0-0---0-0---0-0-
    g-x---x-x---x-x---x-x---x-x---x-x-x---x-x---x-x---x-x---x-x---x-x-
    d-9---9-9---9-9---9-9---9-9---9-9-9---9-9---9-9---9-9---9-9---9-9-
    a-7---7-7---7-7---7-7---7-7---7-7-7---7-7---7-7---7-7---7-7---7-7-
    a-----------------------------------------------------------------
    
    Fig…
  • Tuning: Dropped D then down a step (CGCFAD)
    
    Heavy Part
    ~~~~~~~~~~
    |------------------------------|
    |------------------------------|
    |------------------------------|
    |--0-0-0-0-3--0-0-0-0-3--0-0-4-|
    |--0-0-0-0-3--0-0-0-0-3--0-0-4-|
    |--0-0-0-0-3--0-0-0-0-3--0-0-4-|
    
    Smooth…
  • Drop B:
    B F# B E G# C#
    
    pm
    e-----------------------------------------------------------------
    b-----------------------------------------------------------------
    g-----------------------------------------------------------------
    d-----------------------------------------------------------------
    a-4-2--0--5--6--4-2--0--5--6--4-2--0--5--6------------------------
    d-4-2--0--5--6--4-2--0--5--6--4-2--0--5--6------------------------
    
    Verse:
    gtr…
  • Drop B
    B F# B E G# C#
    
    e----------------------------------------------------------
    b----------------------------------------------------------
    g----------------------------------------------------------
    d----------------------------------------------------------
    a----------------------------------------------------------
    d-13-0--0-0--0-0-0--0-0-0--0-13-0--0-0--0-0-0--0-0-0--0----
    
    Chorus…
  • Drop B:
    B F# B E G# C#
    
    x5
    e------------------------------------------
    b------------------------------------------
    g------------------------------------------
    d---8/13-------------8/13------------------
    a-0-8/13-0-1/3-1-0---8/13-0-1/3-3/4--------
    d-0-8/13-0-1/3-1-0-x-8/13-0-1/3-3/4--------
    
    Fig…
  • Прежде чем играть Slipknot настройте ваш инструмент таким образом: 1-я струна: B4, 2-ая: 
    F#4, 3-я: D4, 4-я:  A3, 5-я: E3, 6-я: A2. Для тех, кто не понимает о чем идет речь, 
    состройте четвертую и шестую струны (просто спустите…
  • Перестроить 6-ую струну зажать на 7-ом ладу, так чтобы она звучала в унисон с 5-ой.
    Riff 1:
    C#------------------------|
    G#------------------------|
    E ------------------------|
    B ------------------------|
    F#|-1p0-0---------1/6-6-----1-1-------|
    B…
  • Intro:
    
    Gt.1
    C#|------------|       
    G#|------------|            
    E |------------|           
    B |------------|                
    F#|------------|             
    B |-/0-00-0-00-|      
    
    Gt.2
    C#|-------------------------|
    G#|-10h11h10h11h10h11h10h11h|
    E…
  • Am
    I did my time and I want out
                 Em
    So effusive, fade
                                 C      Em      Am
    It doesn't cut, this soul is not so vibrant.
    
    The reckoning, the sickening.
    Em
    Packaging subversion…
  • Riff 1 (Intro/Verse 1/):
        C#|-----------------------------------|--------------------------------------------------|
        G#|-----------------------------------|--------------------------------------------------|
        E…
  • Tuning: Drop B (low to high) B,F#,B,E,G#,C#
    
    This song starts with a quick drum intro and then the guitars kick in.
    
    Intro pt.1 - Both Gtr.
    C#|----------------------------------|
    G#|----------------------------------|
    E…
  • Tuning: Drop B
    
    INTRO:
    C#||-------------------------|-------------------------|
    G#||-------------------------|-------------------------|
    E ||*------------------------|-------------------------|
    B ||*------------------------|-------------------0-0---|
    F#||-------------------------|-------------------0-0---|
    B…
  • Drop B
    B F# B E G# C#
    
    really slow w/ heavy flanger and delay
    
                                      Fig 1.
    e-----------------------------------------------------------------
    b-----------------------------------------------------------------
    g-----------------------------------------------------------------
    d-7-7-6---0-0-7---0-0-7---0-0-7---0-0-6---0-0-7---0-0-7---0-0-7---
    a-x-x-x---x-x-x---x-x-x---x-x-x---x-x-x---x-x-x---x-x-x---x-x-x---
    d-7-7-6---0-0-7---0-0-7---0-0-7---0-0-6---0-0-7---0-0-7---0-0-7---
    
    Riff…
  • Mick 0:07 ? 0:32                              (10x)
    -12-12-12----12?----12-12-12-12-12-12-12-12-12-12--
    ----------16----16--16-16-16-16-16-16-16-16?16-16--
    ---------------------------------------------------
    ---------------------------------------------------
    ---------------------------------------------------
    ---------------------------------------------------
    
    James…
  • Tuning: B F# B E G# C#
    
    |-------------------------------------------------------------|
    |-------------------------------------------------------------|
    |-------------------------------------------------------------|
    |-------------------------------------------------------------|…
  • Intro
    
    Tuning = (B-F#-B-E-G#-C#)
    
    Intro :
    
    e|---------1p0--------------0------------------------------------|
    b|-----3-------3--------3-----3---3------------------------------|
    g|---2---2-------2----3---3-----3---------3---3---3---3---2~~~---|
    d|-0------------------------------------2------------------------|
    a|------------------1-----------------0-----0---0---0---0------0-|
    d|---------------------------------------------------------------|
    
    e|---------4h5--------8p6-------6--------------------------------|
    b|---5h6-------6----------6---6---6------------------------------|
    g|---------------7----------7-------------3---3---3---3---2~~~---|
    d|-0-----0----------0-------------------2------------------------|
    a|------------------------------------0-----0---0---0---0------0-|
    d|---------------------------------------------------------------|
    
    (0:13)…
  • Drop B
    B F# B E G# C#
    
    ...the end of track 14 at 16:30
    e-----------------------------------------------------------------
    b-0---------------------------------------------------------------
    g-0---------------------------------------------------------------
    d-0---------------------------------------------------------------
    a-0---------------------------------------------------------------
    d-----------------0------------------x~~~~~~----------------------
    
    Fig…
  • Tuning: Standard tuning
    
    Verse 1: x2 Guitar 1 (Guitar 2 mute)
    |--------------------------|
    |--------------------------|
    |--------------------------|
    |-7----10---12---------9---|
    |-7----10---12---------9---|
    |-5-----8---10---------7---|
    
    Verse…
  • Drop B
    B F# B E G# C#
    
    Fig 1.
    
    e-------------------------------------------------
    b-------------------------------------------------
    g-------------------------------------------------
    d-------4---------5---4----------6---------54----
    a-6-5-4-4-5-4-6-5-5-6-4-6--4-6-6-6-6-5-4-6-54----
    d-6-5-4---5-4-6-5---6---6--4-6-6---6-5-4-6--------
    
    Fig…
  • TUNING: B F# B E G# C# 
    10' and 11's marked by * 
       
    
    Intro 
    C# ------------------------------- 
    G# ------------------------------- 
    E    ------------------------------- 
    B   ---7/6--6--7/6------------- 
    F#  ---6/5--5--6/5-------------…
  • intro riff 1:
    C#|--------------------|----------------------|
    G#|--------------------|----------------------|
    E |--------------------|----------------------|
    B |--------------------|----------------------|
    F#|--------------------|----------------------|
    B…
  • TUNING: uhh im not to sure about this...Drop d Tuning, down 1 1/2 steps:(low to high)B-F-B-E-G-C
    
    Intro: (This is after that noise and the DONG sort of thing)
    ---------------------           -----------------
    ---------------------…
  • tuning : B F# B E G# C#
    
    Intro 
                                                   2x
    C#|---------------------|------------------------|
    G#|---------------------|------------------------|
    E |-6-----6-----6---6---|-6-----6-----6----------|
    B…
  • Tuning: B Gb B E Ab Db (Drop B)
    
    Verse:
    Db---------------------------------------------------------------------------|
    Ab---------------------------------------------------------------------------|
    E----------------------------------------------------------------------------|
    B----------------------------------------------------------------------------|
    Gb---------------------------------------------------------------------------|
    B--111-1-1-1-1-1-1-1-1-1-1-1-1-1-1-333-0-0-0-0-0-0-0-0-0-0-0-0-0-0-----------|…
  • -----4----4-----4---4----4-----4----4----4----4--
    ----0--0----0------0---0-----0----0----0----0--0-
    -------------------------------------------------
    -------------------------------------------------
    
    the next bit is…
  • Tuning: Dropped D then down a step (CGCFAD) 
    
    Heavy Part 
    ~~~~~~~~~~ 
    |------------------------------| 
    |------------------------------| 
    |------------------------------| 
    |--0-0-0-0-3--0-0-0-0-3--0-0-4-| 
    |--0-0-0-0-3--0-0-0-0-3--0-0-4-|…
  • Tuning: Drop A- A,E,A,D,F#,B.
    
    To the best of my abilities.
    
    Gtr. 1: James Root
    Gtr. 2: Mick Thomson
    
    SOLO
    
    Gtr. 2
    
    [1 and a half steps]
    /---17b--17~-17--20-17-19-17---------16p13-------12h15p12--------------/
    /----------------------------20-0-13-------13-------------14h16h17p14--/
    /-------------------------------0-------------15-----------------------/
    /----------------------------------------------------------------------/
    /----------------------------------------------------------------------/
    /----------------------------------------------------------------------/
    
    [Cont.]…
  • Tuning: C G C F A D (low to high)
    
    *This whole song is done on a keyboard/synthesizer.
    *There's only one part with guitar.
    
    Intro:
    Synth:
    "We to feel alone.                We too feel alone.                  We"
    D|---------------------------------------------------------------------------|
    A|---------------------------------------------------------------------------|
    F|----------0----------------0-----------------------------------------------|
    C|---2--------2p0-----0-------------2------2----------2----------------------|
    G|-----------------------7------0--------------------------------------------|
    C|-2----2----------5-------------------2------2--2---------------------------|
    
    1A:
    Synth:
    "too…
  • Tuning: BEAD (you can also try it in BF#BE)
    
    Intro: 00:00 - 00:10 (the guitars do the pull-offs and hammer-ons, you can try without 
    them or just pluck the open strings)
    D|---------------------------------------------------------------------------|
    A|---------------------------------------------------------------------------|
    E|---------------------------------------------------------------------------|
    B|-6p3h6p3--7p4h7p4-0--6p3h6p3--7p4h7p4-0------------------------------------|
    
    D|---------------------------------------------------------------------------|
    A|---------------------------------------------------------------------------|
    E|--------------------8p5h8p5---------9p6h9p6-10p7h10p7----------------------|
    B|-6p3h6p3--7p4h7p4-0---------8p5h8p5----------------------------------------|
    
    Do…
  • Tuning:Drop A(A,E,A,D,F#,B)
    
      Intro #1
    B |-----------------------------------------------------------|
    F#|-----------------------------------------------------------|
    D |-----------------------------------------------------------|
    A…
  • Bass intro first
    
    Guitar kicks in:
    |---------------------------------------------------|
    |---------------------------------------------------|
    |-----------10-9-------9----------------------------|
    |-----------------------------------------10-9------|
    |-----12-----------10----------------10-------------|
    |-10-------------8---------------8-8----------------|
    
    |---------------------------------------------------|
    |---------------------------------------------------|
    |---10----------------------------------------------|
    |---X-----------------------------------------------|
    |---8-----------------------------------------------|
    |---------------------------------------------------|
    
    Bass…
  • Tuning : B F# B E G# C#
    
    Intro
    
    C#|-------------------|
    G#|-------------------|
    E |-------------------|
    B |-------------------|
    F#|--0-----0----0--0--|
    B |--0-----0----0--0--|
        ...     ..  ....
    
    Riff 2
    
    C#|-------------------|
    G#|-------------------|
    E…
  • Tuning:  Drop B [B F# B E G# C#] (low to high)
                    [B Gb B E Ab Db] in case you don't know #s, or you don't have
                                     #s on your tuning device for some reason.
     
    
    Key: F Major…
  • (Tune Down 5 Halfsteps)            B=bend        /=slide
    
    Riff 1
    
    A------------------------------------------
    E-0-1-4-0-1-4-0-1-4-0-1-4-0-1-4-0-1-4-0---
    
    Riff 2
    
    A------5------------5-----------
    E-444---50------444--50-------
    
    Riff…
  • Verse
    
    (Part 1)
    G------------------------------------
    D------------------------------------
    A---------3-3-3-------4-4-4-----4-4--
    D---2-2-2-------3-3-3-------3-3------
    
    (Part 2)
    G------------------------------------
    D------------------------------------
    A---------8-8-8-------9-9-9-----9-9--
    D---7-7-7-------8-8-8-------8-8------
    
    Chorus
    G------------------------------------
    D------------------------------------
    A---------4-4-4-------5-5-5----------
    D---3-3-3-------4-4-4-------3-3-1-1--
    
    Outro
    
    (Part…
  • Fig1A
    (0:18-0:55)
    D|--------------------------------------|
    A|--------------------------------------|
    F|--------------------------------------|
    C|--------------------------------------|
    G|---4---4---4--------------------------|
    C|-4---4---4---4-1-3---1----------------|
    
    Fig1B
    (0:37-0:55)
    D|-------------------------------|
    A|--7?---3?---5?-----------------|
    F|-------------------------------|
    C|-------------------------------|
    G|-------------------------------|
    C|-------------------------------|
    2nd…
  • Drop D tuning
    
    Riff A
    D:-0-0-0-0-4-0-6~--0-0-0-3-1
    A:-0-0-0-0-4-0-6~--0-0-0-3-1
    D:-0-0-0-0-4-0-6~--0-0-0-3-1
    
    Riff B
    D:-0-0-0-0-4-0-6~-0-0-0--0-0
    A:-0-0-0-0-4-0-6~-0-0-0--0-0
    D:-0-0-0-0-4-0-6~-0-0-0--0-0
    
    Riff C
    D:-5-5-5--2--2-2-3-2--2-2-3-2--2-2-3-2
    A:------------------------------------
    D:------------------------------------
    
    Riff…
  • E--------------------------------------------------|
    B--------------------------------------------------|
    F#-------------------------------------------------|
    B-0------11-----------0-----------11-----------0---|
    
    
    E--------------------------------------------------|
    B--------------------------------------------------|
    F#-------------------------------------------------|…
  • Pre-intro
    B|-1~-|
    
    Rest until 2:11
    
    Intro
    B|-00-000-000-0001-| (X4)
    
    B|-00-0000-0000-00001-| (X4)
    
    Fill1
    B|-33-000-22-11-00-0001-| (X4)
    
    Verse
    B|-00-000000-21-| (X9)
    
    B|-1p0-1p0-1p0-2-| (X2)
    (keep doing two of each part…
  • Drop B
    B F# B E G# C#
    
    Riff A
    w/ heavy reverb and digi-tech whammy pedal set up one octave
    
    e-18p17h18-------------17h18p17h18--------------------
    b----------19h20p19h20-------------16h17p16h17p16-----
    g-----------------------------------------------------
    d-----------------------------------------------------
    a-----------------------------------------------------
    d-----------------------------------------------------
    
    Verses…
  • Intro=CLEAN
    E-------------------------------------------
    B-------------------------------------------
    G-------------------------------------------
    D-4-----------------------------------------
    A-----2-------------------------------------
    E---0----0----------------------------------…
  • Drop A
    A E A D F# B
    
    Riff A w/ overdubbed pick scrapes, slides, and sampling
    
    e-----------------------------------------------------------------
    b-----------------------------------------------------------------
    g----15--15-15-15-15-14---14--14--------15-15-15-15-14---14-15-14-
    d-----------------------------------------------------------------
    a----13--13-13-13-13-12---12~~12~~~~----13-13-13-13-12---12-13-12-
    d-0---------------------0-----------0------------------0----------
    
    e-----------------------------------------------------------------
    b-----------------------------------------------------------------
    g----15--15-15-15-15-14----------8------15-15-15-14-12---14-15-14-
    d-----------------------------------------------------------------
    a----13--13-13-13-13-12----------6------13-13-13-12-10---12-13-12-
    d-0---------------------0-0---------0-----------------------------
    
    Riff…
  • Drop D Tuning, Down 1 1/2 Steps. 
    B F# B E G# C# 
    
    
    Riff 1 
    -----------------| 
    -----------------| 
    -----------------| 
    -----------------| 
    -0-2-3-0-3-4-0-6-| 
    -0-2-3-0-3-4-0-6-| 
    
    
    Riff 2 
    ----------------------|…
  • drop B
    
    Intro
    |---------------------------------------------|
    |---------------------------------------------|
    |---------------------------------------------|
    |--4-4-3-3-1----3--1-0-------1-1-1----1--1-0--|
    
    |---------------------------------------------|
    |---------------------------------------------|
    |---------------------------------------------|
    |--1-0-1---1-0-1---1-0-1---1-0-1--------------|
    
    Verse
    |---------------------------------------------|
    |---------------------------------------------|
    |---------------------------------------------|
    |--4-4-3-3-1----3--1-0-------1-1-1----1--1-0--|
    
    Chorus
    |---------------------------------------------|
    |---------------------------------------------|
    |---------------------------------------------|
    |--0-0-9---0-0-8---0-0-7---0-0-6--------------|
    
    Bridge
    |---------------------------------------------|
    |---------------------------------------------|
    |---------------------------------------------|
    |--0-0-0-1-0-1-0-3-0-1------------------------|…
  • Drop B:
    B F# B E G# C#
    
    ( ) = harmonics
    
    
    Intro: Fig 1.
    
    e-----------------------------------------------------------------
    b-----------------------------------------------------------------
    g-----------------------------------------------------------------
    d-----------------------------------------------------------------
    a-0-1---0-1---0-1---0-------------0-1---0-1---0-1---0-------------
    d-0-1---0-1---0-1---0-1b~~~~~~~r--0-1---0-1---0-1---0-1b~~~~~~~r--
    
    e-----------------------------------------------------------------
    b-----------------------------------------------------------------
    g-----------------------------------------------------------------
    d-----------------------------------------------------------------
    a-0-1---0-1---0-1---0-------------0-1---0-1---0-1---0-------------
    d-0-1---0-1---0-1---0-1b~~~~~~~r--0-1---0-1---0-1---0-1b~~~~~~~r--
    
    Gtr…
  • Intro (wild guess here)- Use phaser and distortion , ^= 1/4 tone bend. 
    0:00 
    ----------------------------------------------------------------------------------------------- 
    -----------------------------------------------------------------------------------------------…
  • Tuning : B-F#-B-E-G#-C#
    
    Riff1
    
    B |-0--3-2-1-0--4-3-1-3-
    F#|-0--3-2-1-0--4-3-1-3-
    B |-0--3-2-1-0--4-3-1-3-
    
    Riff1a
    
    E |-9--x-----///-
    B |-8--x---///---
    F#|-7--x-///-----
    
    Riff2
    
    B |-4-2-1-3-
    F#|-4-2-1-3-
    B…
  • riff 1:
    
    |---9-12-13-10----9-12-13-9----9-12-13-10----9-12-13-10-|
    |-9-------------9------------9-------------9------------|
    |-------------------------------------------------------|
    |-------------------------------------------------------|
    
    riff…
  • Tabbed by: Billybusa (Me)
    
    C#||----------------------------------------------|
    G#||----------------------------------------------|
    E ||----------------------------------------------|
    B ||--4----3--------------------------------------|
    F#||--2----1-------2----3-------7h8p7-6h7p6-5h6p5-|
    B…
  • RIFF 1
    D|----------|
    A|----------|
    E|----------|
    B|-0-0-1P0--|
    
    RIFF 2
    D|-------------|
    A|-------------|
    E|-------------|
    B|1P0-1P0-0-0--|
    
    RIFF 3
    D|--------------------|
    A|--------------------|
    E|---------2-2-2-2----|
    B|1-1-1-1-------------|
    
    RIFF…
  • Drop A:
    A E A D F# B
    
    gtr 1.
    
    e-----------------------------------------------------------------
    b-----------------------------------------------------------------
    g-----------------------------------------------------------------
    d-----------------------------------------------------------------
    a-----------------------------------------------------------------
    d-0-0-0----0-0-0-0----0-0-0-0----0-0-0-0----0-0-0-0----0-0-0-0----
    
    gtr…
  • C#-------------------------------------------------------|
    G#--------------------------------------8-7-8-9-8^--7-8^-|
    E--/12---13-/15---13---12--/13 13^~----------------------|
    B--------------------------------------------------------|
    F#-------------------------------------------------------|
    B--------------------------------------------------------|
    
    
    C#--/10-9---7-8-7~---8-9-8-0-7-8-7-0-6-7-4~-----------------------------|
    G#--------8-------------------------------------0-7-8-8-7-6---5-6-6-5-4-|
    E-----------------------------------------------------------------------|
    B-----------------------------------------------------------------------|
    F#----------------------------------------------------------------------|
    B-----------------------------------------------------------------------|
    
    
    C#----------------------------------|
    G#-7-6-6-7-5-6-6-4-3-2-0-2-3-2-3-2--|
    E-----------------------------------|
    B-----------------------------------|
    F#----------------------------------|
    B-----------------------------------|
    
    rythm…
  • -------------------------------------|
    -------------------------------------|
    -------------------------------------|
    -------------------------------------|
    -------3-3-3-3-3-3-3-3-3-s-8-s-3-2-2-|
    ------2-2-2-2-2-2-2-2-2-2-s7-s-2-2-2-|
    
    -------------------------------------|
    -------------------------------------|
    -------------------------------------|
    -------------------------------------|
    -------3-3-3-3-3-3-3-3-3-s-8-s-3-2-2-|
    ------2-2-2-2-2-2-2-2-2-2-s7-s-2-2-2-|
    
    -------------------------------------|
    -------------------------------------|
    -------------------------------------|
    -------------------------------------|
    -------3-3-3-3-3-3-3-3-3-s-8-s-3-2-2-|
    ------2-2-2-2-2-2-2-2-2-2-s7-s-2-2-2-|
    
    -------------------------------------|
    -------------------------------------|
    -------------------------------------|
    -------------------------------------|
    -------3-3-3-3-3-3-3-3-3-s-8-s-3-2-2-|
    ------2-2-2-2-2-2-2-2-2-2-s7-s-2-2-2-|
    
    
    -------------------------------------|
    -------------------------------------|
    -------------------------------------|
    -------------------------------------|
    -------3-3-3-3-3-3-3-3-3-s-8-s-3-2-2-|
    ------2-2-2-2-2-2-2-2-2-2-s7-s-2-2-2-|
    
    -------------------------------------|
    -------------------------------------|
    -------------------------------------|
    -------------------------------------|
    -------3-3-3-3-3-3-3-3-3-s-8-s-3-2-2-|
    ------2-2-2-2-2-2-2-2-2-2-s7-s-2-2-2-|
    
    -------------------------------------|
    -------------------------------------|
    -------------------------------------|
    -------------------------------------|
    ----4--------------------------------|
    ----3--------------------------------|
    
    -------------------------------------|
    -------------------------------------|
    -------------------------------------|
    -------------------------------------|
    ----6--------------------------------|
    ----7--------------------------------|
    
    ----10-------------------------------|
    ----11-------------------------------|
    
    -------------------------------------|
    -------------------------------------|
    -------------------------------------|
    -------------------------------------|
    -------3-3-3-3-3-3-3-3-3-s-8-s-3-2-2-|
    ------2-2-2-2-2-2-2-2-2-2-s7-s-2-2-2-|
    
    -------------------------------------|
    -------------------------------------|
    -------------------------------------|
    -------------------------------------|
    -------3-3-3-3-3-3-3-3-3-s-8-s-3-2-2-|
    ------2-2-2-2-2-2-2-2-2-2-s7-s-2-2-2-|
    
    -------------------------------------|
    -------------------------------------|
    -------------------------------------|
    -------------------------------------|
    -------3-3-3-3-3-3-3-3-3-s-8-s-3-2-2-|
    ------2-2-2-2-2-2-2-2-2-2-s7-s-2-2-2-|
    
    -------------------------------------|
    -------------------------------------|
    -------------------------------------|
    -------------------------------------|
    -------3-3-3-3-3-3-3-3-3-s-8-s-3-2-2-|
    ------2-2-2-2-2-2-2-2-2-2-s7-s-2-2-2-|
    
    
    -------------------------------------|
    -------------------------------------|
    -------------------------------------|
    -------------------------------------|
    -------3-3-3-3-3-3-3-3-3-s-8-s-3-2-2-|
    ------2-2-2-2-2-2-2-2-2-2-s7-s-2-2-2-|
    
    -------------------------------------|
    -------------------------------------|
    -------------------------------------|
    -------------------------------------|
    -------3-3-3-3-3-3-3-3-3-s-8-s-3-2-2-|
    ------2-2-2-2-2-2-2-2-2-2-s7-s-2-2-2-|…
  • Tuning=Dropped B-(low to high) B,F#,B,E,G#,C#
    
    Riff 1
    |--------------------------------------------------------|
    |--------------------------------------------------------|
    |--------------------------------------------------------|
    |-4-3-2--0TR-7-6-7-8--3-2--0TR-3-2-3-4--3-2--0TR-7-6-7-8-|
    |-4-3-2------7-6-7-8--3-2------3-2-3-4--3-2------7-6-7-8-|
    |-4-3-2------7-6-7-8--3-2------3-2-3-4--3-2------7-6-7-8-|
    .…
  • Drop D, Detuned 1/2 Step
    Db Ab Db Gb Bb Eb
    
    h - hammer on
    p - pull off
    b - bend
    
    This song is almost 11 minutes long, but the whole
    thing only has three guitar riffs. I'm not sure if
    the tuning is right or not. The rest…
  • RIFF A (2:10)
    COUNT|1---2---3---4---1---2---3---4---|
        D|--------------------------------|
        A|--------------------------------|
        F|--------------------------------|
        C|--------------------------------|…
  • Tune to B
    
    P.M.......................................           (P.M= Palm Mute)
    -----------------------------------------|
    -----------------------------------------|
    -----------------------------------------|
    -----------------------------------------|
    1-0-0-1-0-0-1-0-1-0-0-1-0-0-1-0----------|
    1-0-0-1-0-0-1-0-1-0-0-1-0-0-1-0----------|
    
    Riff…
Наверх