Аккорды «Snow Patrol»

Snow Patrol
Великобритания, 1994 - по сей день В погоне за звучным и нестандартным названием для своей группы ирландец Гэри Лайтбоди перепробовал несколько имен, остановившись поначалу на Polar Bear («потому что полярные медведи пушистые и, вообще, очень крутые»). Та же идея, только чуть раньше, пришла в голову басисту Jane's Addiction Эрику Эйвери, так что от названия пришлось отказаться. Любитель мишек горевал недолго, и вскоре придумал другое, но такое же «зимнее» - Snow Patrol. Однако от шпильки в адрес… Читать полностью... Великобритания, 1994 - по сей день В погоне за звучным и нестандартным названием для своей группы ирландец Гэри Лайтбоди перепробовал несколько имен, остановившись поначалу на Polar Bear («потому что полярные медведи пушистые и, вообще, очень крутые»). Та же идея, только чуть раньше, пришла в голову басисту Jane's Addiction Эрику Эйвери, так что от названия пришлось отказаться. Любитель мишек горевал недолго, и вскоре придумал другое, но такое же «зимнее» - Snow Patrol. Однако от шпильки в адрес Эйвери не удержался и назвал свой дебютный альбом «Songs For Polar Bears». Было это в далеком 1998-м году. В то время Snow Patrol играли дерзкий гранж вперемешку с панком и строили большие планы, в которых неизменно фигурировал «волшебник в голубом вертолете»... Волшебника пришлось ждать долгих 5 лет. Но он все же прилетел (некоторые сказки заканчиваются не так печально, как остальные). Этим «чародеем» стал для Snow Patrol известный продюсер Гаррет «Jack Knife» Ли, участник инди-группы Compulsion, работавший ранее с Basement Jaxx и Эминемом. Сейчас «новая надежда британского рока», как величают группу журналисты, готова целовать ему коленки. Ли отточил жесткий характерный саунд группы, одновременно добавив элементов танцевальности - и прозябавшие до сего времени в безвестности Snow Patrol засияли аки бриллиант на солнце. В самом деле - играющих различные вариации на тему альтернативного брит-попа банд-формирований в матушке-Британии пруд пруди. И большинству не хватает одного - фишки. То есть, узнаваемости. Надо признать, что Snow Patrol уже подготовили минимальную почву для своего генерального прорыва. Но заслуги Гаррета Ли это не умаляет: удачное сочетание живого рок-н-ролльного звучания и последних студийных технологий стало той самой фишкой, что выделила группу из полка себе подобных. То, что оказалось приемлемым для Basement Jaxx, не помешало и Snow Patrol. «If it looks like it works And it feels like it works Then it works», - поет Гэри Лайтбоди в «Wow». Исчерпывающее описание стратегии Гаррета Ли. Snow Patrol прекрасно понимают, кому обязаны своим неожиданным взлетом (а выдвижение на премию Mercury Music Prize таки о чем-то говорит). «Мы не очень техничные музыканты и вряд ли смогли работать «сессионниками», - признается Гэри Лайтбоди. - Мы просто пишем музыку. Нам нужен был профессионал, который направил бы нашу энергию в нужное русло». Судя по «Final Straw» (оцените символичность названия!), справиться с кипучей энергией «Патруля» было не так уж и просто. Похоже, музыканты и продюсер согласились на компромисс: в первой части альбома музыканты творили то, что хотели ОНИ, вторую взял под свой контроль продюсер. В итоге первые пять композиций «Соломинки», начиная с «Wow» и заканчивая «Spitting Games», слушаются, как одна грохочущая и длинная песня - с одинаковым ритмическим рисунком и в одном темпе. Даже натренированное ухо с трудом отмечает момент завершения предыдущего и начала следующего трека. Присутствие Гаррета Ли минимально, но все же ощущается - в виде забавных электронных вкраплений то там то сям. Зато вторая половина «Final Straw» оправдывает самые смелые ожидания. Первые сполохи северного сияния (ну если Snow Patrol, значит, Крайний Север) угадываются уже в «Spitting Games», где заходящиеся в хрипе дисторшированные гитары внезапно теряют весь свой запал и сходят в акустику. Но «небо в алмазах» раскрывается над головой только на «Run» - первом сингле с альбома, благодаря которому Snow Patrol и открыла для себя широкая публика. Вдохновенная и эмоциональная баллада, достойная стать в один ряд с «Yellow» Coldplay и «Street Spirit» Radiohead. Риффовая последовательность в финале «Run», возможно, войдет в учебник по подготовке юных гитареро. «Run» является переломным моментом «Final Straw», снежным перевалом на пути следования «Патруля», если хотите. Snow Patrol на глазах преображаются из взъерошенных «индюшат» во вполне респектабельных поп-рокеров. «Way & Means» звучит так, как будто исполнена посаженными на электрический стул Maroon 5. «Tiny Little Fractures» - неловкое посвящение Garbage (Ширли Мэнсон, кстати, от Snow Patrol в восторге). Но это цветочки - дослушайте до «Somewhere A Clock Is Ticking» и вы поймете, почему по Snow Patrol так убивается публика. За время, пока тикают часы, небо обрушивается на землю, погребая под хрустальными осколками засмотревшихся на эту красоту. Песня, кстати, апокалиптическая. Посвящена всем на свете войнам - уже случившимся и только намечающимся. «Это первая песня, рассказывающая не о моих личных проблемах», - говорит Лайтбоди. Несмотря на несколько затянутое начало и кажущуюся одномерность, «Final Straw» наверняка придется по душе всем любителям качественного британского поп-рока. Говоря словами песни «Run»: «As if I have a Choice». Как будто бы у нас есть выбор. Пока не проснутся от спячки Radiohead и Coldplay, чего-то более впечатляющего ожидать не приходится. Состав: Гари Лайтбоди (Gary Lightbody) - вокал, электрогитара; Нэйтон Конолли (Nathan Conolly) - электрогитара; Пабло Уилсон (Pablo Wilson) - бас-гитара; Джонни Куинн (Jonny Quinn) - барабаны; Том Симпсон (Tom Simpson) - клавишные. Скрыть...
Популярные аккорды Snow Patrol:
алфавиту | просмотрам | случайно
  • Standard Tuning
    
    Verse
    Guitar 1
    |-0---0---0--
    |-1---1---3--
    |-2---2---0--
    |-2---3---0--
    |-0-------x--
    |---------3--
                                                                        
    Guitar 2 (also plays Am a couple of…
  • Capo 2
    
    C                G        Am           C
    We'll do it all, everything, on our own
    C	   G	    Am         C
    We don't need anything, or anyone.
    
        C			G
    If I lay here, if I just lay here
    		Am			    C
    Would…
  • INTRO 
    e------------------
    b------------------
    g-7----------------
    D-7-------5--------
    A-5-------5--------
    E---------3--------
    
    RIFF
    
    e------------------
    b------------------
    g------------------
    D-2/4/2-0h2--------
    A-------------2----
    E------------------
    
    VERSE
    
    Continue…
  • Tuning: Standard (eBGDAE)
    
    C            Am          E     F
    It's like we just can't help ourselves
    C            Am          E     F
    Cause we don't know how to back down
    C            Am          E     F
    We were called…
  • Intro (and Bridge)
    e--------------------------------------|
    b--------------------------------------|
    g-7------------------------------------|
    D-7------------------------------------|
    A-5------------------------------------|
    E--------------------------------------|
    
    Bass…
  • Chords Used: E A D
    
    E
    I want something
    E
    That's purer than the water
    E
    Like we were
    E		A
    It's not there now
    A		   E
    Ineloquence and anger
    E
    Are all we have
    E	A
    Like Saturn's rings
    A                   E
    An…
  • intro 
    e------
    b------
    g-9----
    D-x----
    A-7----
    E-0----
    
    verse
    e------|------|----------
    b------|------|----------
    g------|------|----------
    D-6----|-7----|-2--------
    A-6----|-7----|-2--------
    E-4----|-5----|-0--------
    
    chorus…
  • Intro and Verse
    
    e-------------------------------------
    b-------------------------------------
    g-------------------------------------
    D-------------------------------------
    A-3-----------4-----------------------
    E-5-----------5-----------------------
    
    Riff
    
    e-------------------------------------
    b-------------------------------------
    g-------------------------------------
    D-0-2-2-2-2------0-2-2-2/5------------
    A-------------------------------------
    E-------------------------------------
    
    Chorus
    
    e-------------------------------------
    b-------------------------------------
    g-4-6-7-9-----------------------------
    D-4-6-7-9-----------------------------
    A-2-4-5-7-----------------------------
    E-------------------------------------…
  • Capo at 2nd
    
    
    Intro: G, Cadd9, Bm(#5/b13), C(add9)
    
    
    Used chords:
                 EADGBe
    G------------320033
    C(add9)------x32033
    Bm(#5/b13)---x20033
    
    
    
    G                Cadd9 Bm(#5/b13) C(add9)
    I'm running out…
  • A
    Is there a place I can go?
    D            G
    Is there a way to get me there?
    A
    If I've forgotten what to say
    D            G
    It's because all words are dust.
    A
    If this is really what you think,
    D             G
    How come you…
  • **CAPO 7**
    sAME CHORDS THROUGHOUT
    
    
    e----------------------------------------------------|
    B----------------------------------------------------|
    G----------------------------------------------------|
    D--11-11-11-11-11-11-11-11-11-11-11-11-11-11-11-11---|
    A--11-11-11-11-11-11-11-11-11-11-11-11-11-11-11-11---|
    E--9--9--9--9--9--9--9--9--9--9--9--9--9--9--9--9----|
    
    
    e----------------------------------------------------|
    B----------------------------------------------------|
    G----------------------------------------------------|
    D--11-11-11-11-11-11-11-11-11-11-11-11-11-11-11-11---|
    A--9--9--9--9--9--9--9--9--9--9--9--9--9--9--9--9----|
    E--11-11-11-11-11-11-11-11-11-11-11-11-11-11-11-11---|
    
    
    e----------------------------------------------------|
    B----------------------------------------------------|
    G----------------------------------------------------|
    D--11-11-11-11-11-11-11-11-11-11-11-11-11-11-11-11---|
    A--9--9--9--9--9--9--9--9--9--9--9--9--9--9--9--9----|
    E--0--0--0--0--0--0--0--0--0--0--0--0--0--0--0--0----|
    
    
    e----------------------------------------------------|
    B----------------------------------------------------|
    G----------------------------------------------------|
    D--11-11-11-11-11-11-11-11-11-11-11-11-11-11-11-11---|
    A--9--9--9--9--9--9--9--9--9--9--9--9--9--9--9--9----|
    E--11-11-11-11-11-11-11-11-11-11-0--0--0--0--0--0--0-|…
  • G			C	
    All this feels strange and untrue 
    Em			C
    And I won't waste a minute without you
    G			C	
    My bones ache, my skin feels cold 
    Em			C
    And I'm getting so tired and so old 
    
    G			C
    The anger swells in my guts 
    Em			C
    And…
  • CAPO-4TH FRET
    
    INTRO (woo-ooh ooh woo-ooh)
    
    C      G        Am         F  (X2)
    
    C           G                  Am    F
    Train this chaos turn it into light 
    C           G                  Am    F
    I've got to see…
  • Special chords used:
    G/B [x20010]
    Dm7 [xx0211]
    
    
    INTRO:
    C  G/B  Dm7  C  x2
    
    VERSE:
    C                        
      No one can ever follow
    G/B
      No one can ever know
    Dm7                            C
      Wind up the…
  • Standard Tuning
    EADGBE
    
    Intro
    
       G#	      G#	 G#	   G#
    
    
    e--4444---|--4444----|--4444---|--4444-----
    b--4444---|--4444----|--4444---|--4444-----
    g--5555---|--5555----|--5555---|--5555-----
    D--6666---|--6666----|--6666---|--6666-----
    A--6666---|--6666----|--6666---|--6666-----
    D--4444---|--4444----|--4444---|--4444-----…
  • Drop D Tuning.
    
    D: 000---
    Bb: 888---
    G: 555---
    
    Verse: D (One note)
    
    Chorus: Bb, G.
    
    
    
    D
    Uh oh, uh oh, uh oh, oh no no
    D
    Uh oh, uh oh, uh oh, oh no no
    D
    Uh oh, uh oh, uh oh, oh no no
    D
    Uh oh, uh oh, uh…
  • Capo 1
    
    A7Sus4: x05750 or x02030
    A6sus4: x04750 or x04030
    Asus2:  x02200
    
    
    Intro: A7Sus4 A6sus4 Asus2 Asus2 x2
    
    A7Sus4        A6sus4     Asus2
    Take back the city for yourself tonight
    A7Sus4            A6sus4…
  • Bm	A	G x2
    
    Bm		A		G
    I find the map and draw a straight line
    Bm		A		G
    Over rivers, farms, and state lines
    Bm		A		G
    The distance from me to where you'd be
    Bm		A		G
    It's only finger-lengths that I see
    Bm		A		G
    I…
  • Capo 4
    
    e|-------3-------3-------3-------3-------|
    B|-------3-------3-------3-------3-------|
    G|-------0-------2-------0-------0-------|
    D|-------0-------0-------2-------2-------|
    A|-------2-------0-------2-------3-------|
    E|-------3-------2-------0-------0-------|…
  • Capo 3
    
    Intro: Em - Em7 - A7 - A -   x 6
    
    Em
    What if the storm ends?
    Em7
    And I don't see you
    A7
    As you are now
    A
    Ever again
    Em
    The perfect halo
    Em7
    Of gold hair and lightning
    A7
    Sets you off against
    A
    The…
  • Verse:
       F               Dm
    If you were here beside me
      C               Bb 
    Instead of in New York
           F                Dm        C     Bb 
    If the curve of you was curved on me 
    
        F                Dm
    I'd…
  • Capo 4
    
    Verse 1
    
    A                                   C
    Please don't let this turn into something it's not
    G                       F
    I can only give you everything I've got
    A                          C
    I can't be…
  • Capo 2 fret
    
    Intro and verses
    
    e--0--0--0--0---0-0-0-0--0--0--0----|
    B--0--0--0--0---0-0-0-0--0--0--0----|
    G--1--1--1--1---1-1-1-1--1--1--1----|
    D--2--2--0--0---0-0-0-2--2--0--0----|
    A--0--0--0--2---2-0-0-0--0--0--2----|
    E-----------0---0--------------0----|
    
    And…
  • Capo 3
    
    D 1 bar  A 1 bar  G 2bars x4
    
                 D         A       G
    You could be happy and I won't know
                              D     A           G
    But you weren't happy the day I watched you go…
  • Capo 4.
    
    Chords:
    Dsus2/A	x00230
    Em7	022030
    G	320033
    Cadd9	x32033
    
    
    Intro:
          Dsus2/A		 Em7		   G		   G
    e|-0-----0-----0--|-----0-----0-----|-----2-----2-----|-----2-----2-----|
    B|---3-----3-----3|---3-----3-----3-|---3-----3-----3-|---3-----3-----3-|…
  • Capo 1st fret
    
    D
    I am an astronaut
    G            A
    I am an astronaut
    A                 D       G
    daddy is away and mum's asleep
        D       A    D
    and I am an astronaut
    
    D
    I am a polar bear
    G            A
    I…
  • Intro
       A  Asus2
    E|-0--0---|
    B|-2--0---|
    G|-2--2---|
    D|-2--2---|
    A|-0--0---|
    E|--------|x4
    
    Verse
    (For the verse part, do the same regression as the intro above for the "A" chord. For
    D chord however, do this…
  • chords as F G Am C
    
    intro '
          *                               *
    e|---------------------------------------------------------------3-----|
    B|----3--s---5------------------1-----3---s----5-----------------------|
    G|----------------2---0---2-----0-------------------2---0-----2--0-----|
    D|----0-----------0-------2-----2-----0-------------0---------2--------|
    A|------------------------0-----3-----------------------------0--------|
    E|---------------------------------------------------------------------|
    
    
    F…
  • Capo 2; Chords relative to Capo:
    
    
         A7        D         A         G         F
    
    |----0----|----2----|----0----|----3----|----1----|
    |----2----|----3----|----2----|----0----|----1----|
    |----0----|----2----|----2----|----0----|----2----|
    |----2----|----0----|----2----|----0----|----3----|
    |----0----|----0----|----0----|----2----|----0----|
    |---------|---------|---------|----3----|---------|
    
    
    
    INTRO
    
    A7…
  • VERSE 
    e-8-------------------|-8-------------------|-
    b-----5-----------5-6-|-----5-----------5-6-|-
    g----------5----------|----------5----------|-
    D---------------------|---------------------|-
    A---------------------|---------------------|-
    E---------------------|---------------------|-
    
    BRIDGE
    e-3-----1----1-------------------------
    b-3-----3----1-------------------------
    g-0-----3----2-------------------------
    D-0-----3----3-------------------------
    A-2-----1----3-------------------------
    E-3----------1-------------------------
    
    
    CHORUS
    e-----------------------------------
    b-----------------------------------
    g-----------------------------------
    D-5------------8--------------------
    A-5------------8--------------------
    E-3------------6--------------------…
  • Intro/Verse (Main Riff)
    It's hard to argue when..
    e|----------------------|
    B|----------------------|
    G|------------8-8-------|
    D|--5-5--3-3--8-8--8-8--|  (x6)
    A|--5-5--3-3--6-6--8-8--|
    D|--5-5--3-3-------8-8--|
    
    Chorus
    Hands…
  • VERSE
    e|--------------------------------------------------------------------------|
    b|--------------------------------------------------------------------------|
    g|--8-8-8---8-8-8----6-6-6----5-5-5--------8-8-8----8-8-8----6-6-6----5-5-5-|
    d|--8-8-8---6-6-6----4-4-4----6-6-6--------8-8-8----6-6-6----4-4-4----6-6-6-|
    a|--6-6-6---8-8-8----6-6-6----6-6-6--------6-6-6----8-8-8----6-6-6----6-6-6-|
    e|----------------------------4-4-4-----------------------------------4-4-4-|…
  • ------------------------------------------------|
      ---15------11-----13----------------------------|
      -------------------------8/10-------------------|  x4
      ------------------------------------------------|
      ------------------------------------------------|…
  • intro (some sorta reverse playback)
    F--0-|-
    C--0-|-
    g--2-|-
    D--3-|-
    A--3-|-
    E--1-|-
    
    verse chords
    F--0-|-0-|-0-|---|-
    C--0-|-0-|-0-|---|-
    g--2-|-2-|-3-|-0-|-
    D--3-|-3-|-3-|-0-|-
    A--3-|-0-|-1-|-5-|-
    E--1-|---|---|-3-|-
    
    bridge
    F--0-|-0-|-0-------
    C--0-|-0-|-0-------
    g--2-|-3-|-2-------
    D--3-|-3-|-3-------
    A--3-|-1-|-3-------
    E--1-|---|-1-------
    
    or…
  • Intro and verse:
    e-0-0-0-0-0-0-0-0-0-------0------
    B-1-1-1-1-1-1-1-1-1-----1---1----
    G-0-0-0-0-0-0-0-0-2---2-------2--
    D-2-2-2-2-2-2-2-2-2-2-----------2
    A-3-3-3-3-3-3-3-3----------------
    E-3-3-3-3-3-3-3-3----------------…
  • Standard tuning
    
    Intro
    e --0--0--0--0--0--0--0--0--0--0--0--0-|
    B -------------------------------------|
    G -3--3--3--3--3--3--3--3--3--3--3--3--|
    D -------------------------------------|
    A -------------------------------------|
    E…
  • Bsus2:  x24422
    Bsus4:  x24400
    F#sus4: 2x4422
    GMb5:   3x442x
    
    
    Intro: Bsus2 F#sus4 GMb5 x6
    
    Bsus4            F#sus4  GMb5 
    Tell me that you want to dance
    Bsus4            F#sus4  GMb5 
    I want to feel your pulse…
  • Intro
    
    E A E A
    
    Verse 1
    E          A                  E      A
    Train this chaos turn it into light 
    E           A                E     A
    I've got to see you one last night 
    E          A                E      A
    Before…
  • Verse and bridge:
    
    Heck of a stretch this if your a beginner or have got small hands,
    you could always put a capo on fret 1 and instead of playing the A=0, play E=5.
    
    e-----------------|-----------------|-----------------|-----------------|
    b-----------------|-----------------|-----------------|-----------------|
    g-----5-----5-----|-----5-----5-----|-----------------|-----------------|
    D---3-----3-----3-|---3-----3-----3-|-----3-----3-----|-----3-----3-----|
    A-0-----0-----0---|-1-----1-----1---|---3-----3-----3-|---3-----3-----3-|
    E-----------------|-----------------|-1-----1-----1---|-1-----1-----1---|
    
    Chorus:
    
    e-----------------|-----------------|---------------------------------|
    b-----------------|-----------------|---------------------------------|
    g-----5-----5-----|-----3-----3-----|-----5-----5----/(3)-------------|
    D---5-----5-----5-|---3-----3-----3-|---5-----5------/(3)-------------|
    A-3-----3-----3---|-1-----1-----1---|-3-----3--------/(1)-------------|
    E-----------------|-----------------|---------------------------------|…
  • Standard Tuning.
    
    Intro x 4/Verse x 8
    
    One step too far, is not far enough....
    
    e-----------|-----------|------------|------------|
    b-----------|-----------|------------|------------|
    g---7-7-x-x-|---9-9-x-x-|--10-10-x-x-|---9-9-x--x-|
    D---7-7-x-x-|---9-9-x-x-|--10-10-x-x-|---9-9-x--x-|
    A---5-5-x-x-|---7-7-x-x-|---8--8-x-x-|---7-7-x--x-|
    E-----------|-----------|------------|------------|
    
    Break/Bridge
    
    e---------|
    b---------|
    g---12----|
    D---12----|
    A---10----|
    E---------|
    
    Chorus
    
    But…
  • G           F        C               F                     G
      And your engine's revving, I can hear it from the garden.
           F       C            F                    G
    I can see it coming, I can see it come for miles.
    
    What…
  • Standard Tuning
    
    INTRO/VERSE
    
    MAIN RIFF:
    
    
    -E|------------0------------0--------------------2-----------2------------|
    -B|---------2----------2------------3-------3------------3----------3-----|
    -G|-----------------------------------------------------------------------|
    -D|-----------------------------------------------------------------------|
    -A|-----0----------0----------0--------2------------2-----------2---------|
    -E|-----------------------------------------------------------------------|
    
    
    -E|----------4--------------4-------------------------5-----------5------------|
    -B|------5-------------5-------------5------------5-----------5------------5---|
    -G|----------------------------------------------------------------------------|…
  • Tuning:EADGCC (B String is tuned up a step and the E String down)
    
    Verse:
    
      Bb5    D5   C5
    C|-0-----0-----0--|
    C|-0-----0-----0--|
    G|-0-----0-----0--|
    D|-3-----7-----5--|
    A|-1-----5-----3--|
    E|-0-----0-----0--|
    
    Pre-Chorus:…
  • VERSE
    several little things happenin, here's some...
    
    e---------|----------|---------|------------------
    b---------|----------|---------|------------------
    g---------|----------|---------|------------------
    D-(0)-----|-(0)------|---------|(0)---------------
    A-5-------|-2--------|-(0)-----|-2----------------
    E---------|----------|-5-------|------------------
    ...you'll…
  • Capo 2
    
    Intro: 
    G/B Asus2 C x2
    G/B Asus2 C7M  
    G/B Asus2 C
    
        G/B     Asus2    C
    The winters mark the earth
         G/B          Asus2  C
    It's floored with frozen glass
         G/B   Asus2  C7M  
    They slip into my…
  • Intro: E F#m D A x2
    
    E
    
    Verse 1:
    
    (E) F#M                         D
    A hand upon my forehead, 
    (D) A                   E
    the joking and the laugh
    (E) F#M                        D
    Waking up in your arms,
    (D) A…
  • Intro
    
    C      G      F X2
    
    e--12---12---10---10---12---12---12---12---|       x 2
    B----13---13---13---13---13---13---13---13-|
    
    C
    In the end
    G                         F
    Your just as well being here
    C
    And out…
  • standard tuning
    Bass Intro
    |-------------------------|
    |-------------------------|
    |-------------------------|
    |-3-3-x33-030-3-3-x33-030-|
    
    Guitar 2    (15's & 14's)
    |-1515151515151515-1414141414141414-|        |-7-----|
    |-----------------------------------|…
  • Tuning: Standard
    
    Much of the song is played with these power chords:
    
    |e---------------|
    |B---------------|
    |G---7-7---5-5---| (use down-strokes)
    |D---7-7---5-5---|
    |A---5-5---3-3---|
    |E---------------|
    
    The…
  • Tuning: Standard, CAPO 4
    
       Cmin9     Bb6      F#      G#       Bb(inv)  Ab(inv)
    e|--3---------3-------2--------4--------x-------x--------|
    B|--3---------3-------2--------4--------x-------x--------|
    G|--0---------0-------3--------5--------x-------x--------|
    D|--1---------3-------4--------6--------3-------1--------|
    A|--3---------1-------4--------6--------5-------3--------|
    E|--x---------x-------2--------4--------6-------4--------|
    
    Figure…
  • Tuning: Standard
    
    CHORDS (strumming pattern not included)
    
    Verse-
    
         E      A  
    e|---0------0---|
    B|---0------0---|
    G|---13-----6---|
    D|---14-----7---|
    A|---14-----7---|
    E|---12-----5---|
    
    Pre-Chorus-…
  • Intro: F Em F Am G 
    
    F                      Em
     You cool you bed-warm hands down
           F                Am    G 
     On the broken radiator
    
    F                      Em
     And when you laid them freezin' on me
       F…
  • Intro/Verse: C, Am, G, F
    Chorus: G, Am, F
    
    C          Am       G              F
         The earth is warm next to my ear
    C        Am    G                  F
         Insects noise is all that I hear
    C          Am…
  • Tuning: Standard
    
    Verse:
    
    |e---------------------------------------------------------|
    |B---------------------------------------------------------|
    |G-------0-----0-----------0-----0-----------0-----0-------|
    |D-----3-----3-----3-----3-----3-----3-----3-----3-----3---|
    |A---5-----5-----5-----5-----5-----5-----5-----5-----5-----|
    |E---------------------------------------------------------|
    
    |e-------------------------------------------------------|
    |B-------0-----0-----------0-----0---2-------0-----0-----|
    |G-----3-----3-----3-----3-----3-----------3-----3-------|
    |D---5-----5-----5-----5-----5-----5-----5-----5-----5---|
    |A-------------------------------------------------------|
    |E-------------------------------------------------------|
    
    Chorus:
    
    |e---------|
    |B---2-2---|
    |G---2-2---|…
  • Whippy Synth[0:00]
    
    e|--------------------------------------------------------------|
    B|-15--15\8---8/15--15\8---8/15-15-15-15\8---8/15-15-15-15-15\8-|
    G|--------------------------------------------------------------|
    D|--------------------------------------------------------------|
    A|--------------------------------------------------------------|
    E|--------------------------------------------------------------|
    
    e|--------------------------------------------------------------------------|
    B|-8/15-15-15-15\8---8/15-15-15-15\8---8/15-15-15-15-15\8---8/15-15-15-15\8-|
    G|--------------------------------------------------------------------------|
    D|--------------------------------------------------------------------------|
    A|--------------------------------------------------------------------------|
    E|--------------------------------------------------------------------------|
    
    e|------|
    B|-8/15-|
    G|------|…
  • Intro/Verse
    e|---------0---|---2--------|
    b|---1-----1---|---2--------|
    g|---2-----2---|---0--------|
    d|---2-----3---|---0--------|
    a|---0-----3---|---1--------|
    E|---------1---|---2--------|
    
    
    lead bit before chorus
    e|---------------------------|
    b|---------------------------|
    g|-----5h7------5h7---5--0---|
    d|---------------------------|
    a|---------------------------|
    E|---------------------------|
    
    chorus
    e|---0-------|--2-------|
    b|---1----0--|--2-------|
    g|---2----1--|--0-------|
    d|---3----2--|--0-------|
    a|---3----2--|--1-------|
    E|---1-------|--2-------|…
  • 1|-------------------------------------------------|
    2|-3-----------------------------------------------|
    3|-2-----------------------------------------------|
    4|-0-----------------------------------------------|
    5|-------------------------------------------------|
    6|-----------------3---------------2---------------|…
  • intro:
    
    e------------------------------------------------------------|
    b------------------------------------------------------------|
    g--8~--8--8--8--8~--8--8~--8--8~--8--8--8--8~--8--8--8-------|etc
    d------------------------------------------------------------|
    a------------------------------------------------------------|
    e------------------------------------------------------------|
    
    (an…
  • Tuning: Standard.
    
    Intro/verse/outro:
    
    "Throw the phone hard at the wall..."
    e|---------------------------------------------------------------------------|
    B|---------------------------------------------------------------------------|
    G|--444444444444----777-----------555555555555-------------------------------|
    D|--444444444444----777-----(X6)--555555555555-------------------------------|
    A|--222222222222----555-----------333333333333-------------------------------|
    E|---------------------------------------------------------------------------|
    (Played…
  • Standard Tuning.
    
    
    Intro x 4/Verse x 8
    
    One step too far, is not far enough....
    
    e-----------|-----------|------------|------------|
    b-----------|-----------|------------|------------|
    g---7-7-x-x-|---9-9-x-x-|--10-10-x-x-|---9-9-x--x-|
    D---7-7-x-x-|---9-9-x-x-|--10-10-x-x-|---9-9-x--x-|
    A---5-5-x-x-|---7-7-x-x-|---8--8-x-x-|---7-7-x--x-|
    E-----------|-----------|------------|------------|
    
    Break/Bridge
    
    e---------|
    b---------|
    g---12----|
    D---12----|
    A---10----|
    E---------|
    
    Chorus
    
    But…
  • Intro/Verse
    |--------------------------------------------|
    |--------------------------------------------|
    |--------------------------------------------|
    |--88888888-66666666-44444444-22222222-------|
    |--99999999-77777777-55555555-33333333-------|
    |--77777777-55555555-33333333-11111111-------|
    
    Chorus
    |--------------------------------------------|
    |--------------------------------------------|
    |--------------------------------------------|
    |--8898---/---6676---\---8898---/---6676-----|
    |--9999---/---7777---\---9999---/---7777-----|
    |--7777---/---5555---\---7777---/---5555-----|…
  • Capo on 6
    
    
    G      D           Em           C  
    I will hang on the hook of your splender
    G      D              Em        C
    As the night roles us up in its arms
    G       D              Em              C
    And the square…
  • INTRO: C8 F8 G8 F8
    
    VERSE:
    
    (bass line)
    For once I want to be the car crash
    Not always just the traffic jam
    A8         B8         G8  ---------------------\
    Hit me hard enough to wake me                   \__ Palm…
  • Chords Used
    Dmaj9 (minus the route note) ----- xxx225
    D7M   (minus the route note) ----- xxx222
    G                           ----- xxx005
    Gmaj9                        ----- xxx002
    Cmaj9                        ----- x32430
    F7M…
  • verse
    e------|------|-
    b------|------|-
    g------|------|-
    D-7----|-6----|-
    A-7----|-6----|-
    E-5----|-4----|-
    
    bridge
    e------|------|------|------|-
    b------|------|------|------|-
    g------|------|-5----|-7----|-
    D-4----|-5----|-5----|-7----|-
    A-4----|-5----|-3----|-5----|-
    E-2----|-3----|------|------|-
    
    chorus
    e-------------|-------------|-
    b-------------|-------------|-
    g-5-----------|-7-----------|-
    D-5-----------|-7-----------|-
    A-3-----------|-5-----------|-
    E-------------|-------------|-…
  • Verse 1:                
                    D                           G
    Batten down the hatch, 'cause we are coming in,
                   D                      G
    Like uninvited guests, romancing everything…
  • Gsus4: 320013
    
    Gsus4                   F
     Two weeks later like a surplus reprieve
    Gsus4                         F
     I found a hair the length of yours on my sleeve
    Gsus4                          F
     I wound it round…
  • Intro: C  Am  G  F  C  x2
    
         C
    I've run to ground 
         Am            G               F         C
    I've run from everyone that I have ever known 
        C
    I'm aching cold 
        Am              G              F…
  • [A] [A+] [C7M  ] [G]
    
    
    [A]         [A+]     [C7M  ]
    Tell me if I'm going crazy
    
          [G]               [A] 
    But everything you said amazed me
    
    [A+]                     [C7M  ] 
    It seems too easy on the ear…
  • Intro: ||: F (Pause)  C (Pause) :||
    
    
    VERSE 1
    
    
    F
                C                                          F
    There's the river, there's the house, and there's the church.
                         C
    And there's us years…
  • e--------------------------------------------
    b--------------------------------------------
    g--------------------------------------------
    D-----0---1-----3---1---0-----3----3---0-----
    A-1h3---3-----3---3---3---3---3--3---3---3---
    E---------------------------1----------------
    
    
    e-------------------------------------------------------------------
    b-------------------------------------------------------------------
    g-------------------------------------------------------------------
    D-10-10-10-10-10-/-5-5---5/10---10-10/3---3-3-3---3-3---3-3---7-7-7-
    A-------------------------------------------------------------------
    E-------------------------------------------------------------------
    
    CHORUS
    e--------------------------------------
    b-4-----3----1-------------------------
    g-5-----3----2-------------------------
    D-5-----3----3-------------------------
    A-3-----1----3-------------------------
    E------------1-------------------------
    
    SOLO…
  • Capo 2
    
    Cadd4:    x33010
    F7M  :    133210
    G6add4:   320010
    
    Intro: C
    e|---------0----------0--------|
    B|-----------------------------|
    G|------0--------0-------------|
    D|------3-----3-----3-----3----|  x4
    A|---3-------------------------|
    E|-----------------------------|
    
    C…
  • Standard Bass Tuning
    
    _____________________________________________________________________________
    	INTRO[0:00]
    _____________________________________________________________________________
    
    No bass
    
    _____________________________________________________________________________
    	VERSE[0:38]
    _____________________________________________________________________________
    
    This…
  • Intro/Outro: 
    
    Guitar 1
    E|-------------------------|
    B|-------------------------|
    G|-------------------------|
    D|---------8---------------|
    A|---7--6------------------|
    E|-------------------------|
    
    Guitar 2
    E|--------------------------|
    B|--------7-----------------|
    G|----------9---8-6---------|
    D|---9---------------9------|
    A|--------------------------|
    E|--------------------------|
    
    
    Chords:
    
    
    E5…
  • Guitar 1 = Gary Lightbody
    Guitar 2 = Nathan Connolly
    Bass	 = Mark McClelland
    Drums	 = Jonny Quinn
    
    r = ring
    ~ = vibrate
    b = bend
    / = slide
    pm= palm mute
    
    
    Intro/Chorus:
    
     Guitar 1&2
    e|------------------------------------------------------------|
    B|------------------------------------------------------------|
    G|-8-8-8--7-7-7--3-3-3-3-3------------------------------------|…
  • e|---------------------------------------------------|
    b|----4-----------4--------------4----------4--------|
    g|------0---0-------0---0----------0---0------0---0--|
    d|--------3-----------3------------------------------|
    a|-----------------------------------4----------4----|
    e|----4-----------4--------------1----------1--------|
    
    
    e|---------------------------------------------------|
    b|----4-----------4--------------4----------4--------|
    g|------0---0-------0---0----------0---0------0---0--|
    d|--------3-----------3--------------3----------3----|
    a|----3-----------3--------------4----------4--------|
    e|---------------------------------------------------|
    
    And…
  • e|----------------------------------------------------------------------------|
    B|----------------------------------------------------------------------------|
    G|----------------------------------------------------------------------------|
    D|--------0---------0---------------------------------------------------------|
    A|---3/5------55-4-----4-5----------------------------------------------------|
    E|----------------------------------------------------------------------------|…
  • Guitar 1 comes in:
    
       Em            A         Em            A
    e--------0-----------------------0----------------|
    b--------0-----------------------0----------------|
    g--------0-----------------------0----------------|…
  • Tuning: Standard
    
    Intro:
    
    |e-------------------------------------------------------------|
    |B-------------------------------------------------------------|
    |G-------------------------------------------------------------|
    |D---4---2-4---2-4-2-4-2-7-----2-4---2-4---2-4-2-4-2-4-2-4-2---|
    |A---4---2-4---2-4-2-4-2-7-----2-4---2-4---2-4-2-4-2-4-2-4-2---|
    |E---2---0-2---0-2-0-2-0-5-----0-2---0-2---0-2-0-2-0-2-0-2-0---|
    
    Verse:
    
    |e---------------------------------------------------------------------|
    |B---------------------------------------------------------------------|
    |G---------------------------------------------------------------------|
    |D---4-4-4-4-4-4-4-4-7-7-7-7-7-7-7-7-5-5-5-5-5-5-5-5-5-5-5-5-5-5-5-5---|
    |A---4-4-4-4-4-4-4-4-7-7-7-7-7-7-7-7-5-5-5-5-5-5-5-5-5-5-5-5-5-5-5-5---|
    |E---2-2-2-2-2-2-2-2-5-5-5-5-5-5-5-5-3-3-3-3-3-3-3-3-3-3-3-3-3-3-3-3---|
    
    Chorus:
    
    |e---------------------|
    |B---------------------|
    |G---------------------|
    |D---7-7-5-5-3-3-3-3---|…
  • Tuning:EADGBE (although can easily be played in drop D)
    
    
    Intro (in background of verse aswell)
    
    Lightly palm mute.
    
    e|---------------------------------------------------------------------------|
    B|---------------------------------------------------------------------------|
    G|---------------------------------------------------------------------------|
    D|---------------------------------------------------------------------------|
    A|-----------------------4---4--4--4-4-4-------0---0---0--0---0---0---0---0--|
    E|-----0---0---0--0----------------------------------------------------------|
    
    Verse…
  • Standard Tuning EADG
    
    Verse
    G|-------------------|
    D|-77777777-66666666-| X4
    A|-------------------|
    E|-------------------|
    
    Chorus (11 not 1)
    G|---------------------------|
    D|-1111111111111111-99999999-| X4
    A|---------------------------|
    E|---------------------------|…
  • Tuning:
    standard
    
    Intro:
    Em G D A
    
    e----2--2----2--2---2--2---2--2--|
    B------3-------3------3------3---|
    G---0-0-----0-0----2-2----2-2----|
    D-----------------0--------------|
    A------------------------0-------|
    E--0-------3---------------------|
    
    Verse…
  • The entire song consists of these chords: E  A
    
    
    
    
    Here is the drone-y kind of sound that is played occasionally:
    
    |e---------------|
    |B---0---2-0-2---|
    |G---------------|
    |D---------------|
    |A---------------|
    |E---------------|
    
    
    
    Lyrics:
    
    We're…
  • INTRO [0:00]
    _____________________________________________________________________________
    
    Electric Guitar
    
    e|-----------------------------|
    B|-----8------8------8------8--|
    G|-7h9-9--7h9-9--7h9-9--7h9-9--|
    D|-----------------------------|…
Наверх