Аккорды Social Distortion - 99 To Life

Добавлено: @romashka
Дата добавления: 05 Января 2024г.
Рейтинг:
0.0
Просмотров: 118
Tuning: Eb (Half-step down)

Play with a shuffle-feel
 
Chord-structure through the whole song: A E   A E   A E   B E
                                      
Intro:
   A    A    E             A    A    E 
eb----------------------------------------------------|
Bb-------------------------------------------------5--|
Gb-4h6--4h6--4-------------4h6--4h6--4-------------4--|
Db----------------4-4h6--------------------4h6--------|
Ab----------------------------------------------------|
Eb----------------------------------------------------|

   A    A    E             B    B     E 
eb------------------------------------------------------|
Bb------------------------------------------------------|
Gb-4h6--4h6--4------------------------------------------|
Db----------------4-4h6----2h4--2h4--2------------------|
Ab----------------------------------------2h4-2---------|
Eb----------------------------------------------4p2p0---|

Verse 1:
      A     E            A       E
I'm Broken hearted, I'm a broken man.
A         E              B       E
Driven by anger, on that night I ran.
  A        E               A      E
I had me a woman, and only she be true.
       A           E                   B        E
But she's gone and left me, you know my life is through.

Chorus:
A      E              A      E
Lonely weekend, baby, lonely nights.
    A        E        B    E
The judge he gave me 99 to life.

>>Intro // Imporvised solo>Intro // Imporvised solo	
Музыка - это язык духа. Он открывает тайну жизни, приносящую мир и устраняющую раздоры (Халил Джебран)
Мы стремимся к созданию контента, соответствующего всем нормам законодательства и уважающего интеллектуальную собственность. Мы также придаем большое значение тому, чтобы не задеть никого и не оскорбить чьи-либо чувства. Если у вас есть вопросы или претензии по размещенному материалу, пожалуйста, сообщите нам об этом на указанный адрес электронной почты: [email protected].
Шрифт
-
0
+
Прокрутка
-
0
+
Стоп
Наверх