Аккорды Split Enz - Stuff And Nonsense

Добавлено: @romashka
Дата добавления: 05 Января 2024г.
Рейтинг:
0.0
Просмотров: 68
Tuning: Standard

Chords Used: 
A   Amaj7   Dmaj7(no third)/A Bm   D/A   G   B   E   F#

VERSE 1:
A          Amaj7          Dmaj7(no third)/A            
Disobey my own decisions, I deserve all your suspicions
A                    Amaj7            Dmaj7(no third)/A              
First it's "yes" and then it's "no" I dilly dally down to duo
Bm        D/A          G         
But I got no secrets that I babble in my sleep
D/A                     G                A 
Won't make promises to you that I can't keep

CHORUS:
B                   E
And you know that I love you
B                 F# 
Here and now, not forever
B                  E 
I can give you the present
B                      F# 
I don't know about the future
F#
That's all stuff & nonsense

VERSE 2: (chord progression as verse 1)
I once lived for the future, every day was one day closer
Greener on the other side, yes, I believed before I met you
But I soon learned, your love burned brighter than the stars in my eyes
Now I know how and when, I know where and why

Notes about playing this tune: The chorus has 1 bar of 4/4 on the B chord, then a 
2/4 bar on the E or F# chord before returning to the B.

The Dmaj7(no third)/A  chord is a D major 7 chord with no third (F#) and an A bass (A, D, C#)

e|-x-------------------------------------------|
B|-2-------------------------------------------|
G|-2-------------------------------------------|
D|-0-------------------------------------------|
A|-0-------------------------------------------|
E|-X-------------------------------------------|

D/A

e|-x-------------------------------------------|
B|-7-------------------------------------------|
G|-7-------------------------------------------|
D|-7-------------------------------------------|
A|-0-------------------------------------------|
E|-X-------------------------------------------|
Музыка не только фактор облагораживающий, воспитательный. Музыка – целитель здоровья (Бехтерев)
Мы стремимся к созданию контента, соответствующего всем нормам законодательства и уважающего интеллектуальную собственность. Мы также придаем большое значение тому, чтобы не задеть никого и не оскорбить чьи-либо чувства. Если у вас есть вопросы или претензии по размещенному материалу, пожалуйста, сообщите нам об этом на указанный адрес электронной почты: [email protected].
Шрифт
-
0
+
Прокрутка
-
0
+
Стоп
Наверх