Аккорды «Staind»

Staind
Группа из США. Первый альбом Tormented группа записала самостоятельно в 1996 году. Он не пользовался особой популярностью. Но, начиная с выпуска в апреле 1999 года их первого на официальном лейбле FlipElektra альбома Dysfunction, группа STAIND продемонстрировала замечательную, почти классическую схему успеха новых сегодняшних альтернативных проектов. За это время команда раскрутила три главных своих хита Just Go, Mudshovel и Home, отыграла десятки концертов для сотен тысяч фанатов в турах с Kid… Читать полностью... Группа из США. Первый альбом Tormented группа записала самостоятельно в 1996 году. Он не пользовался особой популярностью. Но, начиная с выпуска в апреле 1999 года их первого на официальном лейбле FlipElektra альбома Dysfunction, группа STAIND продемонстрировала замечательную, почти классическую схему успеха новых сегодняшних альтернативных проектов. За это время команда раскрутила три главных своих хита Just Go, Mudshovel и Home, отыграла десятки концертов для сотен тысяч фанатов в турах с Kid Rock, MONSTER MAGNET, SEVENDUST, плюс турне Family Values с LIMP BIZKIT и KOЯN. Группа смогла продать более миллиона пластинок. Затем, как это часто бывает в таких случаях, STAIND получили пять номинаций на Boston Music Awards 2000, а гитарист Майк Машок по результатам голосования читателей журнала Guitar World был объявлен лучшим новым дарованием. В 2001 году вышел долгожданный третий диск коллектива под названием Break The Cycle, который возглавил Billboard Modern Rock Chart, и спустя всего 11 недель со дня выхода стал трижды платиновым. Корни STAIND уходят на одну рождественскую вечеринку в городке Springfield, где будущий вокалист группы Аарон Льюис (Aaron Lewis) впервые повстречался с будущим гитаристом Майком Машоком (Mike Mushok). Их диалог оборвался так же внезапно, как и начался когда пьяный хозяин пробил головой стену и выгнал всех из дома. Остальными участниками STAIND позже стали барабанщик со звучной и родной слуху фамилией Jon Wysocki и басист Johny April. Свой первый концерт это сборище бывших художников, поваров и автомехаников отыграло в феврале 1995-го. Через полтора года своей сценической деятельности в Новой Англии совместно с группами их ранга HONKEYBALL, SHED, KILGORE, GWAR, FAR и GOD LIVES UNDER WATER, STAIND в октябре 1996 года выпустили свой дебютный альбом Tormented. Более 1000 фэнов штурмовали презентацию, за следующие два года было распродано более 4000 копий работы. Настоящий успех к STAIND пришел после их встречи с Фредом Дерстом. Казалось бы, еще совсем недавно его самого на сцену за уши вытащил Джонатан Дэвис (KOЯN), а сейчас уже сам лидер LIMP BIZKIT активно проталкивает молодых музыкантов. Причем ведет себя при этом, как настоящая акула шоу-бизнеса, т. е. психи разные там выкидывает, кочевряжится напоказ. Нервишки стэйндовцам так же не преминул попортить. Ребята просто хотели выглядеть повзрослее, поэтому и изобразили на обложке врученной Дерсту демки окровавленную Библию, насаженную на нож вместе с распятой Барби, свисающей с креста вниз головой. Будучи парнем набожным, лидер бизкитов целый день пинал и швырял диск по комнате. Но сменил гнев на милость, когда увидел музыкантов на сцене. После концерта он сказал, что STAIND — лучшая группа, которую он видел за последнее время, и что он хочет продюсировать новый диск коллектива. STAIND наконец-то представили нормальное демо Фреду, а он в свою очередь пригласил их к себе домой в Jacksonville на репетицию. После того, как Дерст проиграл их музыку по телефону Джордану Шуру, президенту Flip Records, имя STAIND добавилось в список групп, чьи альбомы эта фирма намеревалась выпустить в ближайшее время. Фред также формально представил STAIND миру хард-рока, когда пригласил их записаться на золотом альбоме LIMP BIZKIT 3 Dollar Bill Y'All в 1997 году. Однако музыка LIMP BIZKIT — не совсем то, что играют STAIND. Их творчество пропитано духом Сиэтла. Свой второй альбом Dysfunction записывался именно в столице гранджа. К июню 1998 года STAIND активно работали со своим менеджментом. Их взяла под свое крыло компания The Firm, которая также управляла делами LIMP BIZKIT, Ice Cube и ORGY. Музыканты были тогда способны убедить Тэрри Дейта (DEFTONES, PANTERA, SOUNDGARDEN, WHITE ZOMBIE) продюсировать их альбом. 1 августа 1998 года, на следующий день после выступления на Warped Tour, STAIND прилетели в Сиэтл, чтобы делать запись в студии Litho (студия PEARL JAM). В течение октября альбом был сведен в том же Сиэтле. Пластинка вышла в свет 13 апреля 1999-го. Несомненными хитами стали песни Just Go, Mudshovel и Home. Ближайшей ассоциацией для содержания пластинки может послужить творчество STONE TEMPLE PILOTS + STATIC-X. Не зря же эти три команды отправились в совместное турне. В течение нескольких последних лет я узнал многое о себе и о жизни, — говорит вокалист STAIND Аарон Льюис. — Несомненно, мы прогрессировали от Tormented и Dysfunction до Break The Cycle. Мне понадобилось 28 лет, чтобы осознать то, о чем я говорю сейчас. Я как будто наконец увидел свет в конце 28-милетнего туннеля и надеюсь то, что я написал, поможет фэнам, слушающим наши творения, легче понимать все происходящее в их собственных жизнях. Альбом Break The Cycle выражает то, чего смогли достичь музыканты группы STAIND с момента ее основания. В подготовке пластинки принимали участие небезызвестные личности американской альтернативной сцены. Продюсером диска выступил Джош Эбрахам (Josh Abraham), а над сведением трудился с группой Энди Уоллос (Andy Wallace). В новом альбоме присутствуют тяжкие, точнее, тяжелые откровения, которые основываются на звучании предыдущего альбома Dysfunction, но музыканты не боятся и не стыдятся привносить в свою музыку более мягкие пассажи. Трудно выбрать какие-то особенные моменты в Break The Cycle — альбом сам по себе наполнен особенными песнями. Любимой композицией группы является первый сингл с диска It's Been Awhile. Эта песня некогда была частью акустического репертуара вокалиста STAIND Аарона Льюиса и была перезаписана для нового альбома в электричестве. Песня Can't Believe, возможно самая тяжелая песня группы, представляет собой всего несколько секунд пения, а потом из динамиков валит настоящий ор, наполненный громким криком фронтменаю Дальше — грустнее. Трек с песней Waste повествует о фанате, который покончил с собой. Его мать приехала на шоу группы в Детройт и долго стояла снаружи гастрольного автобуса STAIND и плакала. Она хотела поговорить с музыкантами, потому что надеялась получить от них ответы на свои вопросы. Все переживания и эмоции вылились в Waste. А вот песню Outside Aарон исполнял в акустическом варианте как раз во время тура Family Values. На самом деле, по словам музыкантов, успех песни Outside — это случай. Аарон играл ее в течение первых дней существования банды. Деньги, которые он зарабатывал, возвращались обратно в группу, шли на ее развитие. Так что вокалисту STAIND приходилось 2 или 3 раза в неделю играть песню в акустике в разных местах, чтобы заработать денег на выживание. Outside была одной из песен, которые исполнялись, не будучи законченными, поэтому каждый раз вставлялись новые слова и аккорды. Музыканты почти включили ее в альбом Dysfunction и только однажды, во время тура Family Values, за 10 минут до выхода на сцену, они решились ее исполнить. Трек появился на концертном альбоме Family Values Tour'99, пробил себе дорогу и на MTV и на радио, постепенно став одной из лучших рок-записей конца 2000 — начала 2001 гг. Аарон никогда и не задумывались о том, чтобы выпустить ее в свет таким образом. Однако в результате, несомненно удачного, хотя и случайного стечения обстоятельств эта, безусловно, сильная песня добилась заслуженного успеха, и STAIND решает записать нормальную, сыгранную всей группой, версию этой песни, которая и появляется на альбоме Break The Cycle. "Staind это в первую очередь чувства вокалиста Аарона Льюиса-чувства по отношению к окружающему миру,собственной дочери или своим музыкальным идолам." - Музыкальный журнал "AllMusic". Следующей работой в творчестве Staind стал четвёртый альбом "14 Shades Of Grey"("14 Оттенков Серого") вышедший в 2003 году.Он дебютировал на первой строчке чарта "Billboard 200",и разошёлся тиражом свыше 3 миллионов копий.Несомненными хитами стали песни: "Price Of Play", "So Far Away", "Zoe Jane". "К своему пятому по счёту альбому Staind не растеряли ни желчи,ни злости,а душевная боль,которую Аарон Льюис выплескивает в своих песнях похоже,стала ещё мучительней." - Музыкальный журнал "AllMusic". Пятая глава (именно так был назван альбом Staind вышедший в 2005 году) дискографии Staind продолжила традицию двух предыдущих альбомов,завоевав первую строчку "Billboard 200". Мировые продажи зашкалили за 3.5 милионов распроданных копий,что принесло диску очередной платиновый статус.Хитами на этой пластинке стали песни:"Right Here","Falling","Everything Changes" и "King Of All Excuses". Последним на данный момент является альбом The Illusion Of Progress вышедший в 2008 году.Название альбома имеет свою историю.Во время записи альбома,у участников коллектива был творческий кризис,работа продвигалась медленно.Сами участники Staind слонялись без дела,просматривали гитары на интернет-аукционах,занимались своими делами,поэтому когда альбом был готов,у группы не возникло трудности выбора названия пластинки,Иллюзия прогресса,по словам самой группы стала совершенно новой работой, более мелодичной и более эмоциональной за весь период их творчества. Состав Имя: Aaron Lewis В группе: вокалист, гитарист Родился: 13 арпеля 1972 в Vermont, Rutland Хобби: рыбалка, езда на любимом мотоцикле Семейное положение: женат на Ванессе Имя: Mike Mushok В группе: гитарист Родился: 10 арпеля 1974 в Manhasset, NY Хобби: чтение Имя: Johnny April В группе: басист, бэк вокал Родился: 27 марта 1975 в Enfield,CT Хобби: рыбалка Имя: Jon Wysocki В группе: барабанщик, перкуссия Родился: 17 января 1977 в Northampton, MA Хобби: татуировки Скрыть...
Популярные аккорды Staind:
алфавиту | просмотрам | случайно
  • G#sus4           B    
    It´s been a while
                  F#          
    Since I could...
     C#              G#sus4 
    Hold my head up high
                     B
    It´s been a while
               F#         C#
    Since I first saw…
  • Em С G D (4x)
    (D)        Em  С
    This is my life
    G                D
    It's not what it was before
    Em        С             G
    All these feelings I've shared
    D               Em     C
    And these are my dreams
    G              D
    That…
  • Intro/Куплет
       E                     D  
    e--------------------------------|
    B--------------------------------|
    G|-9-------9----9--9-9---7-------7----7--7-7-|
    D|-9-------9----9--9-9---7-------7----7--7-7-|
    A|-7-------7----7--7-7---5-------5----5--5-5-|
    E--------------------------------|…
  • Well I want you to notice
     To notice when I'm not around
     I know that your eyes see straight through me
     And speak to me without a sound
      
     Chorus:
            And I want to hold you
            Protect you from all of the things…
  • Tuning: Db Ab Db Gb Bb eb
    
    VERSE:
    eb-------------------------------------      
    Bb-------------------------------------
    Gb---7-7-7-7-7-7-7-7-7-7-7-7-7-7-7-7---
    Db---7-7-7-7-7-7-7-7-7-7-7-7-7-7-7-7---
    Ab---0-0-0-0-0-0-0-0-5-5-5-5-5-5-5-5---
    Db---0-0-0-0-0-0-0-0-5-5-5-5-5-5-5-5---
    
    CHORUS:
    eb------------------------------------------
    Bb------------------------------------------
    Gb---11-11-11-11-11-11-11-7-7-7-7-7-7-7-7---
    Db---11-11-11-11-11-11-11-7-7-7-7-7-7-7-7---
    Ab---9--9--9--9--9--9--9--5-5-5-5-5-5-5-5---
    Db---9--9--9--9--9--9--9--5-5-5-5-5-5-5-5---
    
    That's…
  • Tuning: Ѕ step EbBbGbDbAbEb
    * = mute
    / = slide
     = single distorted note
    
    Main (Verse)- w/ heavy ass distortion and another effect?            
    
    E--------------------------------------------------------------------|
    B--------------------------------------------------------------------|
    G--------------------------------------------------------------------|
    D--2/4---4---4---2/4---4---2/4---4---4---4---2/4---4-----------------|
    A--2/4---4---4---2/4---4---2/4---4---4---4---2/4---4-----------------|
    E--0/2---2---2---0/2---2---0/2---2---2---2---0/2---4-----------------|…
  • Tuning: Drop Db
    
    Intro
    Eb|---------------|
    Bb|---------------|
    Gb|--7----5----2--|
    Db|--0----0----0--|
    Ab|---------------|
    Db|---------------|
     
    Chorus 1
    Eb|------------------------------|
    Bb|------------------------------|
    Gb|--7-7-7-7----------------6----|
    Db|--7-7-7-7-5-3/5-xxxx-3/5-6-5--|
    Ab|--5-5-5-5-5-3/5-xxxx-3/5-4-5--|
    Db|----------5-3/5-xxxx-3/5---5--|
    
    Verse…
  • Tuning: 1/2 a step down
    
    
    Part 1
    eb|-----------------|---------------|---------------|
    Bb|-----------------|---------------|---------------|
    Gb|---------------0-|---------------|-----0---------|  Play twice
    Db|-----------4-----|-4-------------|-4-------4-----|
    Ab|-------2---------|-----2-------2-|-------------2-|
    Eb|---0-------------|---------0-----|---------------|
    
    Part…
  • drop d + tune down half a step
    
    intro
    [palm muted-------------------]
    ------------------------------------------------------------------------------
    ------------------------------------------------------------------------------
    ------------------------------------------------------------------------------
    -0-0-3-4-3-0-3-5-3-0-3-6-3-0-0-000--------------------------------------------
    -0-0-3-4-3-0-3-5-3-0-3-6-3-0-0-000--------------------------------------------
    -0-0-3-4-3-0-3-5-3-0-3-6-3-0-0-000--------------------------------------------
    
    verse…
  • Acoustic Guitar
    Standard Tuning (low to high E A D G B E)
    
    Verse Riff
    Play this four times                 then this four times
    -------------------------            -------------------------
    -------------------------…
  • Tuning:     DADGBe
              
              Intro
              D-----4-4-----4-4-----4---------4-4-----4-4---4-5-6
              A-2-2-2-2-2-2-2-2-2-3-2-----2-2-2-2-2-2-2-2-2-2-3-4
              D-2-2-----2-2-----2-3-------2-2-----2-2-----2------…
  • The song is tuned in (Eb,Ab,Db,Gb,Bb,Eb)
    
    Intro with sightly dirty elec. w/slow phase shifting effect
    PART 1
    eb|-0-----------0----------0---------0--------------
    Bb|-0-----------0----------0---------0--------------
    Gb|-0--4…
  • *intro (gtr. - CLEAN) 
    
       E------------------------------------------I 
       B------------------------------------------I 
       G------------------------------------------I PLAY 2x 
       D--3----------------------------------------I…
  • Tuning: Drop Db (Db, Ab, Db, Gb, Bb, Eb)
       Key: /   = slide
            [x] = harmonic
            pm  = palm mute
    
       Intro:
      Eb|-------|
      Bb|-------|
      Gb|---[9]-|
      Db|-3-[9]-|
      Ab|-3-----|
      Db|-3-----|
    
       Verse:
      Eb|--------------------------|…
  • Tuning: Drop Db
    
    Intro 
    Eb|-------------------|
    Bb|-------------------|
    Gb|-------------------|
    Db|-2--2-2--2-2--2-2--|
    Ab|-2--2-2--2-2--2-2--|
    Db|-2--2-2--2-2--2-2--|
     
    Pre-Verse			          
    Eb|---------------------|
    Bb|---------------------|
    Gb|---------------------|
    Db|--2^-xx-0h2-x-3p2-x--|
    Ab|--2^-xx-0h2-x-3p2-x--|
    Db|--2^-xx-0h2-x-2p2-x--|…
  • TUNING: Ab Db Ab Db Gb Bb
    
    
    INTRO: Clean (slow hammeron's & poweroff's)
     Bb|----------------------|----------------------|
     Gb|----------------------|----------------------|
     Db|--------------7---6~--|--------------6-------|…
  • Drop D Tuning (Down a Half Step)
        (C# G# C# F# A# D#)
    
    Verse
    E---------------------]
    B---------------------]
    G-7----9----6----7----]
    D-7----9----6----7----]
    A-5----7----4----5----]
    D---------------------]
    
    Pre Chorus
    E-----------]
    B-----------]
    G------7----]
    D-4----7----]
    A-4----5----]
    D-4---------]
    
    Chorus
    E---------------------]
    B---------------------]
    G---------------------]
    D-7----2----4----0----]
    A-7----2----4----0----]
    D-7----2----4----0----]…
  • tuning low to high(Ab,Db,Ab,Db,Gb,Bb)
    
    intro
    
    --2^3^2--------------------------------------------------
    --0------------------------------------------------------
    --0-----11-11---0----------------------9-----------------
    --------9--9^10-0-12-10-10^12--12-X3---9^10^9------------
    --------9--9----0-12-10-10-----10------9------10-9-------
    ------------------10-------------------------------10-9-0
    verse…
  • Tuning:B-F#-B-E-G#-C#
    
    Intro
    repeat 5x
    e|------------------------------------------------------11-------7---8-------
    B|------------------126------------------------------13---6-----7---6-------
    G|--------------17^------------------------------------------7---7---4-------
    D|-2--6--2--6-------------17-21-12-6-9-2012^-6-6-67----------21--7---8-----
    A|-2--6--2--6------------------------------------------------------7---8-----
    E|-2--6--2--6------------------------------------------------------7---8-----
    
    solo…
  • Intro(this is the bass but…..of course not the right strumming but u get the idea)
    Eb|-------------------------------------------------------------------|
    Bb|-------------------------------------------------------------------|
    Gb|-------------------------------------------------------------------|
    Db|-------------------------------------------------------------------|
    Ab|--0-0-0-0-0-0-0-0-0-0-0--3-3-3-3-3-3-3-3-3-3-----------------------|
    Db|-----------------------------------------------0-0-0-0-0-0-0-0-0-0-|
    Guitar…
  • Tune down 1/2 step.  Low to high: Eb Ab Db Gb Bb Eb
    
    Intro/Verse/Bridge
    e|-----------------------|
    B|-----------------------|
    G|-----------------------|
    D|-7-7---5---------------|   Repeat as needed.
    A|-----------------------|
    E|-0---0-----00--0000----|
    
    
    e|-----------------------------|
    B|-----------------------------|
    G|-----------------------------|
    D|-----------------7-/-5--x----|…
  • TUNING: Dropped D tuned down half of a step (The exact tone is
       Hard to get because Mike Mushok uses a Baritone guitar made to
       sound heavy and low.....and yes it is a six string.)
    
       INTRO:
       
     (strings d a and d…
  • intro 
    eb|---------------------------------------
    Bb|---------------------------------------
    Gb|--------------0-----0------------------
    Db|----2----8-8-----7---------------------
    Ab|----2----8-8-----7---------------------
    Eb|----0----6-6-----5---------------------
    
    verse…
  • Tuning:Eb Ab Db Gb Bb eb
    
    Intro/Verse
    eb------------------------------------------------------------|
    Bb------------------------------------------------------------|
    Gb--------0------0--0-----------------------------------------|
    Db----4-----4----4--4-------4-----4-4-2----4------7-7-7-7-7---|
    Ab--2---2-----2--2--2---0-2---2----------2----2-4-5-5-5-5-5---|
    Eb------------------------------------------------------------|…
  • Intro (after drums)
    e--------------------------------------------------------
    B--------------------------------------------------------
    G--------------------------------------------------------
    D-4-(4-4-4-4)-4--X--4-7-7--------------------------------
    A-2-(2-2-2-2)-2--X--5-5-5--------------------------------
    D-2-(2-2-2-2)-2--X--5-5-5--------------------------------…
  • Tuning: G# Eb Ab Db Gb Bb
    
    
    Intro
    #1
    Bb------------------------------------------------------|
    Gb------------------------------------------------------|
    Db---9----12----5---------------------------------------|
    Ab---7----10----3----0----------------------------------|
    Eb---7----10----3----0----------------------------------|
    G#---7----10----3----0----------------------------------|
    
    #2
    Bb------------------------------------------------------|
    Gb------------------------------------------------------|
    Db---9----12----5----7----------------------------------|
    Ab---7----10----3----5----------------------------------|
    Eb---7----10----3----5----------------------------------|
    G#---7----10----3----5----------------------------------|
    
    #3
    Bb-----------------------------------------------------|
    Gb-----------------------------------------------------|
    Db---9----12----7--------------------------------------|
    Ab---7----10----5--------------------------------------|
    Eb---7----10----5--------------------------------------|
    G#---7----10----5--------------------------------------|
    (let…
  • Tune Your guitar down 1/2 step d# g# d# f# a# d#
    Intro/ Verse
    
    Em            A5   
    E----0000|0000|0000
    B----0000|0000|0000
    G----0000|0000|2222
    D----2222|2222|2222     repeat
    A----2222|2222|0000
    e----0000|0000|0000
    
    Pre-chrous…
  • Tuning: As with most Staind songs, Mike plays with his 6 string guitar
            which has the low B of a 7 string guitar but without the high 
            E. From there, all strings drop one half step, then the low E…
  • Verses
        Bm                 C
    Eb|-------------------------------------|
    Bb|----3-----3-----3-----3-----3-----3--|
    Gb|------0-----0-----------0-----0------|
    Db|-------------------------------------|
    Ab|--2-----2-----2-----3-----3-----3----|
    Eb|-------------------------------------|…
  • Tuning:    Db  Ab   Db  Gb   Bb   Eb
    Same as: (C#)(G#)(C#)(F#)(A#)(D#)
    
    Intro (w/ Distortion):
    Eb:-----------------------------------------
    Bb:-----------------------------------------
    Gb:-----------------------------------------…
  • Tuning - G# Eb Ab Db Gb Bb 
    
    Intro/ Verse
    PM during verse
    Bb-------------------------------------------------------------------------
    Gb-------------------------------------------------------------------------
    Db-------------------------------------------------------------------------
    Ab---5-5-5-3---5-5-5-3---5-5-3---5-5-5-3---5-5-5-3---6-6-6-----------------
    Eb---5-5-5-3---5-5-5-3---5-5-3---5-5-5-3---5-5-5-3---6-6-6-----------------
    G#---5-5-5-3---5-5-5-3---5-5-3---5-5-5-3---5-5-5-3---6-6-6-----------------…
  • Tuning: Drop Db
    
    Intro
    Eb|----------------------------------------|
    Bb|----------------------------------------|
    Gb|----------------------------------------|
    Db|--3p0-x-3p0-x-3p0-x-3--7---7---7---7----|
    Ab|--3p0-x-3p0-x-3p0-x-3-------------------|…
  • Bb|-----------------------------------------------|
    Gb|-7--7--7-7-7/12-x-x-12--12--12-12-12-12--12-12-|
    Db|-7--7--7-7-7/12-x-x-12--12--12-12-12-12--12-12-|
    Ab|-5--5--5-5-5/10-x-x-10--10--10-10-10-10--10-10-|
    Db|-5--5--5-5-5/10-x-x-10--10--10-10-10-10--10-10-|
    Ab|-----------------------------------------------|
    
    Bb|-----------------------------------|
    Gb|-11--11--11-11-9--7--7--7-7-7-7--7-|
    Db|-9---9---9--9--9--7--7--7-7-7-7--7-|
    Ab|-7---7---7--7--7--5--5--5-5-5-5--5-|
    Db|-----------------------------------|
    Ab|-----------------------------------|…
  • Intro/Versuses-
    
    |------------------6-------------------------------------------------------------
    |-----------6--------------------------------------------------------------------
    |--------------------------------------------------------------------------------
    |--------------------------------------------------------------------------------
    |--------------------------------------------------------------------------------
    |--------------------------------------------------------------------------------
    Chorus-
    
    |-------------------------------------------------------------------------------
    |-------------------------------------------------------------------------------
    |---------------3---------------------------------------------------------------
    |---3-----5-----3---------------------------------------------------------------
    |---3-----5-----1---------------------------------------------------------------
    |---1-----3---------------------------------------------------------------------
    
    Interlude-
    
    |-------------------------------------------------------------------------------
    |-------------------------------------------------------------------------------
    |----------------------------------------------------------------------3-3-3----
    |---3-3-3---3-3-3---3-3-3--------------------------------------3-3-3---3-3-3----
    |---3-3-3---3-3-3---3-3-3---3/2-3/2-3/2-3/2--6/5-6/5-6/5-6/5---3-3-3---1-1-1----
    |---1-1-1---1-1-1---1-1-1--------------------------------------1-1-1---1-1-1----
    
    |-------------------------------------------------------------------------------
    |-----------4-4-4-----------4-4-4-----------------------------------------------
    |-----------3-3-3-----------3-3-3-----------------------------------------------
    |---3-3-3---1-1-1---3-3-3---1-1-1-3/2-3/2-3/2-3/2--6/5-6/5-6/5-6/5--------------
    |---3-3-3---1-1-1---3-3-3---1-1-1-----------------------------------------------
    |---1-1-1---1-1-1---1-1-1---1-1-1-----------------------------------------------…
  • GUITAR: 7 String (Recomended) *6 String tuned down low works also.
    so if you have a 7-String, your gonna nail this song perfect!
    
    TUNING (from low to high) Ab, Db, Ab, Db, Gb, Bb, Eb
    Dropped Half Step down all stings, Drop…
  • Tuning:    Standard EADGBe
    Intro/Verse
    e----------------------------------------------------
    B----------------------------------------------------
    G----2---------2----------------2----------2---------
    D----------2-----2--------------------2-----2--------
    A--4-----4---------4--4-------4-----4---------4------
    E-2-----2----2-------2--2----2-----2-----2------2-0-2
    
    Chorus
    D-11-11-11-9
    A-9--9--9--7
    E-9--9--9--7…
  • Tuning from low to high( Ab Db Ab Db Gb Bb)
    
    -|----------------------------|-------------------------------|---------------|
    -|----------------------------|-------------------------------|---------------|
    -|----------------------------|-------------------------------|---------------|
    -|----12-12-12-12-14--10------|--12-12-12-12-14---10---0--3---|--12-12-12-12--|
    -|----12-12-12-12-12--10------|--12-12-12-12-12---10---0--3---|--12-12-12-12--|
    -|----12-12-12-12-12--10------|--12-12-12-12-12---10----------|--12-12-12-12--|…
  • e|-------------------------------------|
    b|-------------------------------------|
    g|5-5-5---7-7----5-5-5---7-7-----------|
    d|5-5-5---7-7----5-5-5---7-7-----------|
    a|3-3-3---5-5----3-3-3---5-5-----------|
    E|-------------------------------------|
    
    repeat…
  • Intro: x2
        Em                                      D
    eb|--3-----3-----3------3-----3-----3--------2-----2-----2-----2------2---2-|
    Bb|----3-----3------------3-----3-----3--------3-----3----------3----3------|
    Gb|----------------------------------------------2------------------2-------|
    Db|------------2------------------2--------0-----------0------0---------0---|
    Ab|------2------------------2-----------------------------------------------|
    Eb|0------------------0-----------------------------------------------------|
    
    Verse…
Наверх