Аккорды «Stereophonics»

Stereophonics
Stereophonics — современная британская рок-группа. Основана в 1992 году в городе Кумаман (Cwmaman), Уэльс. За 17 лет существования выпустила 7 студийных альбомов, суммарный тираж которых превышает 10 млн. В музыке Stereophonics наиболее четко прослеживается влияние группы Oasis. История группы берёт начало в ранних 90-х, когда Келли Джонс (Kelly Jones) (гитара, вокал), Ричард Джонс (бас) и Стюарт Кейбл (ударные), три друга детства, решили создать рок-группу, которую они сначала окрестили Blind… Читать полностью... Stereophonics — современная британская рок-группа. Основана в 1992 году в городе Кумаман (Cwmaman), Уэльс. За 17 лет существования выпустила 7 студийных альбомов, суммарный тираж которых превышает 10 млн. В музыке Stereophonics наиболее четко прослеживается влияние группы Oasis. История группы берёт начало в ранних 90-х, когда Келли Джонс (Kelly Jones) (гитара, вокал), Ричард Джонс (бас) и Стюарт Кейбл (ударные), три друга детства, решили создать рок-группу, которую они сначала окрестили Blind Faith, но вскоре выяснилось, что такое название носила группа Эрика Клэптона. Через некоторое время появилась переименованная группа Tragic Love Company, названная в честь любимых групп музыкантов: The Tragically Hip, Mother Love Bone и Bad Company. Позже Стюарт Кейбл предложил название Stereophonics, которое он прочёл на фотографии своей бабушки. Название было одобрено остальными членами группы, и группа стала называться «The Stereophonics». Это называние продержалось вплоть до 1996-го, когда группа взяла окончательное название Stereophonics. Будучи уроженцами Уэльса, музыканты поначалу оттачивали своё мастерство регулярными выступлениями в местных пабах. Они находились под сильным влиянием таких групп, как AC/DC и Creedence Clearwater Revival. Их профессиональная карьера начинается в 1997 году, когда Ричард Брэнсон, создатель Virgin Records, предложил им контракт со своим новым лейблом V2. Выступления 1997 года и дебютный альбом группы, озаглавленный Word Gets Around, стали настоящим открытием, особенно в Великобритании. Звучание группы описывали как «звонкие гитары, завораживающие изящные гармонии, смесь рока с поэзией, искренние романтические тексты, вышедшие из-под пера Келли Джонса, чей резкий голос никого не оставит равнодушным». Такая уникальная смесь не осталась незамеченной широкой публикой, и группа в 1998 г. получает премию Brit Awards в номинации «Лучшая новая группа», а их альбом становится «платиновым» в Великобритании (500 000 экземпляров). Это единственный альбом группы, не занявший первое место в национальном хит-параде (он занял «всего» 6-е место). Два года спустя, уже будучи успешной группой, Stereophonics выпускают свою вторую работу, Performance and Cocktails. Новый альбом был не менее мощным, чем предыдущий, с песнями, такими как «The Bartender and the Thief», «Just Looking» и «I Stopped to Fill My Car Up», свидетельствующими о подлинном таланте. После этого альбома группа приобрела непреходящую популярность не только в Соединённом Королевстве, но и во всей Европе. Три сингла с альбома попали в британский Top-10, а сам альбом стал дважды платиновым. В апреле 2001 г. был записан новый альбом, который оказался немного более акустическим, чем предыдущий. Альбом получил название Just Enough Education To Perform (J.E.E.P). Главные хиты альбома — «Have A Nice Day», «Mr.Writer». На сегодняшний день это самый известный альбом группы, несмотря на обрушившуюся на него критику со стороны прессы, вызванную песней «Mr. Writer», содержащей жалобы на поведение журналистов. 2003 год стал поворотным для группы, которая выпустила свой четвёртый альбом под названием You Gotta Go There to Come Back. В нём группа открывает новую грань своего таланта, представив альбом куда более зрелый, чем предыдущие, в отношении как уровня текстов, так и музыки. Песни более глубокие и сильно отличаются от рок-песен дебютного альбома. Главным хитом альбома стала песня Maybe Tomorrow. Тем временем в группе назревают проблемы, и ударник Стюарт Кэйбл в сентябре того же года покидает группу. Во время тура его заменял бывший ударник группы Black Crowes Стив Горман. Через некоторое время после окончания тура (декабрь 2004) Келли и Ричард решили нанять нового ударника. Их выбор пал на аргентинца Хавьера Уэйлера, которого они уже однажды встречали: «Мы были в рок-клубе, прекрасно проводили время, и хозяин пригласил нас к себе домой на вечеринку, где собираются музыканты. В Лондоне Хавьер уже был известен, он работал в студии в Фулхэме и помогал делать демо-записи для нашего альбома You Gotta Go There to Come Back» (Келли Джонс). Обновлённое трио возвращается к своим корням, выпустив в 2005 г. альбом Language. Sex. Violence. Other? Альбом оказался на вершине британских чартов, главным хитом стала песня Dakota. Во время мирового тура, последовавшего за выпуском альбома, был записан концертный альбом «Live from Dakota». Тем временем, в марте 2007 г., Келли Джонс заканчивает работу над сольным альбомом, озаглавленным Only The Names Have Been Changed с простыми гитарным, фортепианными и струнными аранжировками. Названия всех песен на альбоме состоят из женских имён. В честь 10-летия группы в 2006 году музыканты решили выпустить концертный альбом (Live From Dakota) и DVD (Rewind, вышел в апреле 2007). Последний прослеживает всю карьеру группы, включает в себя интервью с Роном Вудом (Rolling Stones), Ноэлем Галлахером (Oasis), Боно (U2), Томом Джонсом, The Black Crowes, более двух часов отрывков их выступлений во время разных туров, начиная с 1997 года, и некоторые видеозаписи акустического тура Келли Джонса (2000), включая неизданные записи. Выпущенный в октябре 2007 г., Pull The Pin стал шестым студийным альбомом Stereophonics. Название альбома — выражение, которое в юности часто употреблял Келли, означающее примерно «делай что хочешь». Первым синглом с альбома стала «Bank Holiday Monday», вторым — «It Means Nothing». Келли пояснил, что он «написал эту песню в гостиничном номере в Германии. Это было 7 июля 2005 г., в момент, когда я чувствовал обиду. Но песня не об этом, это скорее наша манера продолжать заниматься любимым делом даже в такие моменты, как этот». Седьмой студийный альбом коллектива, вышедший в 2009-м году, получил название Keep Calm & Carry On. О его выходе было объявлено ещё в середине 2009-го года, официальный релиз состоялся 16 ноября. Чуть раньше, в августе, группа выпустила сингл Could You Be The One, возглавивший в первую же неделю своего существования британские чарты. Главными же хитами альбома стали песни Innocent и 100MPH. Альбом был в целом встречен положительно как фанатами группы, так и музыкальными критиками, хоть и не попал в топ-10 британских альбомов по итогам года. Альбом Graffiti on the Train вышел 4 марта 2013 года. Альбом вышел после долгой паузы, в отличие от остальных альбомов группы. Скрыть...
Популярные аккорды Stereophonics:
алфавиту | просмотрам | случайно
  • Start with 3 C's on the A string
              
              Riff #1
              
              G---------------------------------|
              D---------------------------------|
              A------------6-6----4----4-4-4--4-|…
  • Intro:
    G|-----------------------------------------
    D|-----------------------------------------
    A|------2-2-2-2-2-2-2-2-2-2-2-2-2-2-2-2----         
    E|-----------------------------------------
    
    Verse:
    G|-------------------------------------------------2----------
    D|---------------------------------------0-2-0-3-4---3-2-0----…
  • Tuning: Standard Tuning (EADGBe)
    
    
    Chord index (bare)
    
    D#maj Cmin Gmin Fmaj Dmaj
    e|6---3----3----1----5---
    B|8---4----3----1----7---
    G|8---5----3----2----7---
    D|8---5----5----3----7---
    A|6---3----5----3----5---
    E|x---x----3----1----x---
    
    Intro:
    
    D#…
  • INTRO: Listen for strummin pattern
    e|--------------------5-5-5-5-5-5-5----10-10-10-10-10-10-10--
    b|--------------------5-5-5-5-5-5-5----10-10-10-10-10-10-10--
    g|--------------------6-6-6-6-6-6-6----11-11-11-11-11-11-11--
    d|--------------------7-7-7-7-7-7-7----12-12-12-12-12-12-12--
    a|--------------------7-7-7-7-7-7-7----12-12-12-12-12-12-12--
    E|-0-3-5-8-5-3-0-3-5--5-5-5-5-5-5-5----10-10-10-10-10-10-10--
    
    Verse
    
    e|--------------------5-5-5-5-5-5-5-5-5-5--10-10-10-10-10-10-10--
    b|--------------------5-5-5-5-5-5-5-5-5-5--10-10-10-10-10-10-10--
    g|--------------------6-6-6-6-6-6-6-6-6-6--11-11-11-11-11-11-11--
    d|--------------------7-7-7-7-7-7-7-7-7-7--12-12-12-12-12-12-12--
    a|--------------------7-7-7-7-7-7-7-7-7-7--12-12-12-12-12-12-12--
    E|-0-3-5-8-5-3-0-3-5--5-5-5-5-5-5-5-5-5-5--10-10-10-10-10-10-10--
    
    Chorus
    
    e|-5-5-5-5-5---10-10-10-10-10--3-3-3-3---4-4-4-4-4-4----------------
    b|-5-5-5-5-5---10-10-10-10-10--3-3-3-3---4-4-4-4-4-4----------------
    g|-6-6-6-6-6---11-11-11-11-11--4-4-4-4---5-5-5-5-5-5----------------
    d|-7-7-7-7-7---12-12-12-12-12--5-5-5-5---6-6-6-6-6-6----------------
    a|-7-7-7-7-7---12-12-12-12-12--5-5-5-5---6-6-6-6-6-6----------------
    E|-5-5-5-5-5---10-10-10-10-10--3-3-3-3---4-4-4-4-4-4----------------
    
    e|5-5-5-5-5--10-10-10-10-10--3-3-3-3--4-4-4-4-4-4------------------
    b|5-5-5-5-5--10-10-10-10-10--3-3-3-3--4-4-4-4-4-4------------------
    g|6-6-6-6-6--11-11-11-11-11--4-4-4-4--5-5-5-5-5-5------------------
    d|7-7-7-7-7--12-12-12-12-12--5-5-5-5--6-6-6-6-6-6------------------
    a|7-7-7-7-7--12-12-12-12-12--5-5-5-5--6-6-6-6-6-6------------------
    E|5-5-5-5-5--10-10-10-10-10--3-3-3-3--4-4-4-4-4-4-0-3-5-8-5-3-0-3-5…
  • Riff 1
    e------------------------
    b------------------------
    g------------------------
    d-------------------5--5-
    a-5--5--7--7--5--5--3--3-
    e-3--3--5--5--3--3-------
    
    Riff 2
    e-------------1--1-------
    b-1--1--1--1--1--1--1--1-
    g-2--2--2--2--2--2-------
    d-2--2--2--2--3--3--2--2-
    a-------------3--3--3--3-
    e-------------1--1-------
    
    Riff…
  • #CAPO 2ND FRET#
    Chords used
    B (002220)
    Emaj9/b (000220)
    A6 (300030)
    Eadd9/g# (200230)
    F (022100)
    Em/G (100230)
    
    Intro
    B   Emaj9/b   B    Emaj9/b
    
    Verse 1
    B
       San francisco bay, past pier thirty nine
    Emaj9/b
       Early pm,…
  • DROP D TUNING
    CHORDS USED: G5= 555XXX, F?= 3334XX, D= OOO232, Bb5XXX= 888XXX, G= 5XOO33
    
    INTRO: G5
    
    VERSE 1: 
    F*         
     WHEN YOU THINK ABOUT IT
                                    D
    HE'S WATCHING EVERY WORD YOU SAY,  DAZED
    F*…
  • No bass for the first few bars
    
    p = palm mute 
     
    Intro
    G---------------------------------------------------------------------------
    D---------------------------------------------------------------------------
    A---------------------------------------------------------------------------
    E--5--5--5--5--5--5--5--5---------------------------------------------------
    
    Verse…
  • CHORDS USED
    
    
      B      B/A    E   E/F#   G#m   F#   C#
    --2--   --2-   -0-  --0-   -4-   -2-  -4--
    --4--   --4-   -0-  --0-   -4-   -2-  -6--
    --4--   --4-   -1-  --1-   -4-   -3-  -6--
    --4--   --4-   -2-  --2-   -6-…
  • capo 4th fret
    tab written as if 4th fret is played 'open' 0. 6th fret is '2'
    
    Intro:
    
    e:-------2-------------2-----/-------2-------------2-----/-------2-------------2-----/-------2-------------2--|
    b:----0----0--------3---3---/----0----0--------3---3--/----0----0--------3---3---/----0----0--------3---3-----|
    g:--2-------------4----------/--2-------------4----------/--2-------------4----------/--2-------------4-------|
    d:--0------------------------/--0------------------------/---0------------------------/---0-------------------|
    a:-----------------------------/----------------------------/----------------------------/--------------------|
    e:-----------------------------/----------------------------/----------------------------/--------------------|
    
    Verse…
  • standard tuning: EADGBe
    
    Capo 2nd fret
    
    Chords:   C  D? Am G6?     
              -  -   -  -
              1  3   1  -
              -  2   2  -
              2  -   2  - 
              3  -   -  1
              -  -   -  2
    
    verse1
    
    C…
  • INTRO
    |G-----------
    |D-----------    x2
    |A-00--------
    |E----33--1--
    
    VERSE
    |G-----------
    |D-----------    x8
    |A-00--------
    |E----33--1--
    
    CHORUS
    |G----------------
    |D----------------   x2    
    |A-33---00--------
    |E----33---00--1--
    
    VERSE…
  • Verse 1
    
    G                                      Cmaj7
       id like to know what its all about          Whats up there?
    
    G                                   Cmaj7
       Am i gonna get old and laugh                Bout something?
    
    G…
  • INTRO:
    -|-----------3---------------------3----------------------------------------|-
    -|--1--1h3p1-1---1--1--1-----1h3p1-1---1--1--1---1--1-----1--1-----1--------|-
    -|--0--0---------0--0--0--0--0---------0--0--0---0--0h2p0-0--0h2p0-0--------|-
    -|--2--2---------2--2--0--2--2---------2--0--0---3--3-----3--3--------------|-
    -|--3--3---------3--------0----------------------3--------------------------|-
    -|--------------------------------------------------------------------------|-…
  • Chords Used:
    G       320033
    Cadd9   032033
    Am7     002103
    F       132211
    C       032010
    D*      054030
    Em7     022033
            
    Verse Riff 1:
                    G…
  • D = x x 0 2 3 2
    Em = 0 2 2 0 0 0
    G = 3 2 0 0 3 0
    Em7 = 0 2 2 0 3 0
    Bm7 = x 2 4 2 3 2
    A = x 0 2 2 2 0
    Asus4 = x 0 2 2 3 0
    
    Intro and Verse riff
    e--0h2--2--0----0---0--2----0----3-------2---0---|
    b--3----3--3----0---0--0----0----3----3--0---0---|
    g--2------------0---0------------0----0----------|
    d--0------------2---2------------0----0----------|
    a------------------------------------------------|
    e------------------------------------------------|
    
    D---------------------------------Em
    They're…
  • Intro
    
    (The intro and first verse are just a bass line but on guitar just play this)
    
    E---------------------------------------------------------------------------
    B---------------------------------------------------------------------------
    G---------------------------------------------------------------------------
    D---------------------------------------------------------------------------
    A---------------------------------------------------------------------------
    E--10-10-10-10-10-10-10-10-10-s-3--3--3-s-8--8--8--8------------------------
    
    Chrous
    
    E---------------------------------------------------------------------------
    B---------------------------------------------------------------------------
    G---------------------------------------------------------------------------
    D--12-12-12-12-12-12-12-12-12-s-5--5--5-s-10-10-10-10-----------------------
    A--12-12-12-12-12-12-12-12-12-s-5--5--5-s-10-10-10-10-----------------------
    E--10-10-10-10-10-10-10-10-10-s-3--3--3-s-8--8--8--8------------------------
    
    (I…
  • Tuning: standard tuning (GDAE)
    
    VERSE
    
    G|---------------------------------------------------------------------------|
    D|---------------------------------------------------------------------------|
    A|--3333333333333333-1010101010101010101010101010101010----------------------|
    E|---------------------------------------------------------------------------|
    
    CHORUS
    
    G|---------------------------------------------------------------------------|
    D|---------------------------------------------------------------------------|
    A|--10--------9--------7----------------10--------9--------7-----------------|
    E|---------------------------------------------------------------------------|
    
    FUNNY…
  • Verse 1:
    Am                    Fmaj7
    I drive a truck,  it carries money
    and every day, I dream of my fantasies
    
    Dm                 G
    Yesterday i bought my beach house
    Little place just off the coast of france
    
    Am…
  • *****CAPO 4TH Fret*****
    
    Chords used - relative to capo
    
    eadgbe
    A  x02220
    D# 22443x
    B  x55433
    D  xx0232
    
    Live intro used at the Virgin-2002 festival
    
    E------0h2-------0h2--------------
    B---------3---------3-----3---3---
    G----2---------2---------2----2---
    D--0---------0--------------------
    A----------------------3----2-----
    E-------------------------------3-…
  • Tuning: standard tuning (GDAE)
    
    CHORUS
    
    G|-----------------------------------
    D|-----------------------------------
    A|--5-300-300-300-30---------3-5-----   x4
    E|-------------------2-3-4-5---------
    
    On the last time end with
    
    G|-------------
    D|-------------
    A|-------------
    E|--33333333---
    
    VERSE
    
    G|----------------------------------
    D|-----------------2222222222222222-
    A|-2222222222222222-----------------…
  • Intro: C   Cmaj7   C7   F
    
     C
      You stole my money honey
     Cmaj7
      You're cold your blood's stopped running
     C7                               F
      And know you're buying your new life
    
      (Repeat same chords for other verses)…
  • standard tuning:
    
    e-------------------------------------------------------------------
    B-------------------------------------------------------------------
    G-------------------------------------------------------------------
    D---X-X-6/7-7---6------4-----------------4-4-4/6-6-6-6/7-7-7--------
    A---X-X-6/7-7---6------4-----------------4-4-4/6-6-6-6/7-7-7--------
    E---X-X-4/5-5p0-4p0-0--2p0-0-0-0-0-0-0h2-2-2-2/4-4-4-4/5-5-5--------
    
    e-------------------------------------------------------------------
    B-------------------------------------------------------------------
    G-------------------------------------------------------------------
    D---X-X-6/7-7---6------4-----------------4-4-4/6-6-6-6/7-7-7-----2--
    A---X-X-6/7-7---6------4-----------------4-4-4/6-6-6-6/7-7-7-----2--
    E---X-X-4/5-5p0-4p0-0--2p0-0-0-0-0-0-0h2-2-2-2/4-4-4-4/5-5-5-----0--
    
    This…
  • E = 0 2 2 1 0 0
    Dsus2 = x x 0 2 3 0
    A = x 0 2 2 2 0
    A5 = x 0 2 2 x x
    D5 = x 5 7 7 x x
    Verse
    e-----9--------------9-------------|
    b-----10--10-10------10--10-10-----|
    g-----9----9--9------9----9--9-----| repeat as required
    d--11-----11-11--11------11-11--11-|
    a--0-------------0--------------0--|
    e----------------------------------|
    then
    e---7-7-7-7--7-----7---7--7-----------|
    b---9-9-9-9--10----10--10-10----------|
    g---9-9-9-9--9-----9---9--9-----------|
    d---0---------------------------------|
    a-------------------------------------|
    e-------------------------------------|
    
    Chorus
    E---------------Dsus2
    So…
  • Chord formation:
    ---------------
    
    A  577655   Bm  X24432   D  X57775   G  355433
    
    
    Verse #1:
    --------
    
       A				D
    	I gotta lose weight
    
       A				D
    	I swallow honey
    
       A				D
    	Is my stand up show
    
       A				D
    	Still that funny…
  • Chords Used
    A      577600(open barre)
    C9     x35500
    G9     355400
    D      x00232
    C      032010
    G      320033
    Em7    022030
    Asus4  x02230
    
     A		      C9	    G9
     Travelling through a tunnel under sea
     A
     You never…
  • Intro Riff (Electric Piano arr. for guitar)
    
    e|--------5-------5----------7--5----------------10-----------
    B|---5h7-----5h7-----5h7p5---------7-----10h12--------10h12---
    G|------------------------------------------------------------
    D|------------------------------------------------------------
    A|------------------------------------------------------------
    E|------------------------------------------------------------
    
    
    e|---10---------------12--10---------------5-------5----------
    B|--------10h12p10-------------12-----5h7-----5h7-----5h7p5---
    G|------------------------------------------------------------
    D|------------------------------------------------------------
    A|------------------------------------------------------------
    E|------------------------------------------------------------
    
    
    e|---7--5----------------10-----------10---------------12--10-
    B|---------7-----10h12--------10h12--------10h12p10-----------
    G|------------------------------------------------------------
    D|------------------------------------------------------------
    A|------------------------------------------------------------
    E|------------------------------------------------------------…
  • Chords used:
    G:320033
    Am:00221
    Bm:244322
    C:032010
    D:000232
    
    The Kelly Jones riff
    e|------------|
    B|--1/0-------|
    G|-------2/0--|	  This is played after C every two or so bars.
    D|------------|
    A|------------|
    E|------------|
    
    Intro
    
    G…
  • Am                                F
    Do you remember the light of the flame
    G                          F
    It was a birthday party of someone
    Am                    F
    Then you told me your name
    G…
  • chords used
    G D C Bm7 Em7 Cadd9
    
    VERSE 1
    
    G          D                C
     Same long faces in the work-mans' hall,
    
    G       D                      C
     Caramel crisp counts his birds,___
    
    G            D                  C
     Cliff…
  • CHORDS USED:
    Em7-022033
    G-320033
    Cadd9-x32033
    Dsus4/F#-2x0233
    Dsus4-xx0233
    *=each chord in brackets strummed once
    
    INTRO:
    Em7, G, Cadd9, G  (G, Dsus4/F#, Em7)*
    
    Em7           G
    I never knew her name
    Cadd9         G
    I only…
  • Tuning: standard
    
    Intro riff:
    
    e -10-----------10-------------8--------------8------------
    B ----7---8---------7----8--------7----8-----------7------8
    G ---------------------------------------------------------
    D ---------------------------------------------------------
    A…
  • (easy but a classic b-side!)
    
    Verse and chorus:
     
    G |--------------             G |----------
    D |--------------             D |----------
    A |---2222--3333-             A |-55555555-
    E |-33----00----- x3   then   E |----------
    
    Slow…
  • (L)=Legato Slide
    
    Intro
    Acoustic
    
    |-----------------|----------------|----------------|--2---2---2---0-|
    |-2--0---0---0---0|---0---0---0---0|---0---0---0---0|1---1---1---1---|
    |-0----0---0---0--|-2---2---2---2--|-0---0---0---0--|2---------------|
    |-0---------------|-0--------------|-0--------------|0---------------|
    |-2---------------|----------------|-2--------------|----------------|
    |-3---------------|----------------|-3--------------|----------------|
    
    Verse:…
  • Riff 1
    
    G-
    D-----------77
    A-77-5-77-8
    E-
    
    Riff 2
    
    G-
    D-
    A-
    E-55555555
    
    Riff 3 (Take him in Asks to use the phone)
    
    G-
    D-
    A-5555-2222-33333333
    E-
    
    Riff 4 (hah hah bit)
    
    G-
    D-
    A-2222-3333
    E-
    
    Riff 5 (Yet he lives alone)
    
    G-
    D-
    A-55555555-2222
    E-
    
    Riff…
  • Standard Tuning EADGBe
    
    
    Intro
    
    e----------------------------
    B----------------------------
    G----------------------------  x4
    D----------------------------
    A----------------------------
    E-4-4-5--4-4-5--4-4-5--4-4-5-
    
    
    Verse
    
    e-----------------------------
    B-----------------------------
    G-----------------------------…
  • Chords Used:
    
     D      xx0232
     A      x02220
     Asus2  x02200
     Bm     224432
     F#m    244222
     G      320003
     C      x32010
    
     Strumming Rhythm:  v   v    ^v v       v = downstroke   ^ = quick upstroke
                        1…
  • Chords Used;
    D/F#      200230
    G5        320033
    C5        030010
    A         002220
    Em        022000
    D5        000230
    
    
    Intro:
    
    E--------------------------------------|
    B------3-----3---3-------3----3--3-----|
    G----2-----2---2-------2----2--2-------|…
  • intro- d g d a d 
    
         d    a              d           a 
    The first time ever i saw your face
      e            g           d  
        i thought the sun rose in your eyes
                           g               d
    and the moon…
  • CHORDS:
    Cadd9-x23033(see note below)
    G-320033(see note below)
    Dsus4/F#(see note below)
    
    NOTE:
    in the verses and intro there are little changes in the Cadd9 and G like this-
       Cadd9             G
    e--3--3--3--3--3--3--3--3--3--3--|
    B--3--0--3--0--3--0--3--0--3--0--|
    G--0--0--0--0--0--0--0--0--0--0--|
    D--2--2--2--2--2--0--0--0--0--0--|
    A--3--3--3--3--3--2--2--2--2--2--|
    E------------------3--3--3--3--3-|…
  • Chords used (for u beginners)
       A     002220
       ASUS2 002200
       D     000232
       DSUS2 000230
       BM    224432
       E     022100
       G     320033
    
    Im gonna try and explain the intro as best as I can.
    
    Intro = A , ASUS2 ,A, D,…
  • Standard tuning
    
    Chords:
    
    Aadd9- x x 7 6 5 0
    C#m7- x 4 6 4 5 4 
    D- x x 0 2 3 2
    Dm- x x 0 2 3 1
    E7- 0 2 0 1 3 0
    G5- 3 x 0 0 3 3
    F- 1 3 3 2 1 1 
    Fadd9- x x 3 2 1 3
    Am7- x 0 2 0 1 3 
    Fsus2- 0 3 3 0 1 1
    C- 0 3 2 0 1 0
    Em7- 0…
  • INTRO
    
             A5
    E--------------------------------------------------------------------------------------------------------------------------------]
    B--------------------------------------------------------------------------------------------------------------------------------]
    G--------------------------------------------------------------------------------------------------------------------------------]…
  • Verse
    
    Em7				         G	
    Sit down, take the weight off your feet,
    
    Em7			      G
    Sit down, step off of the street,
    
    C				           G
    They say you can tell a man by his feet,
    
    D                C…
  • VERSE
    |G|--------
    |D|2---0--- x4
    |A|--2---00
    |E|--------
    
    |G|-------
    |D|0-0-0-0 
    |A|-------
    |E|-------
    
    CHORUS
    |G|-------------
    |D| ------------ x2
    |A|10-7-5-7-10-5
    |E|-------------
    
    (I'm gonna be another Marilyn)
    |G|-------------------
    |D|-------------------…
  • Chords:-
    C:   032010
    C+9: 032030
    Am:  X02210
    F*:  332010
    
    Capo 3
    
    Intro:-
         C
    ||---0---0---0---0---x---x-|
    ||---1---1---0---0---0---0-|
    ||---0---0---0---0-h-2-p-0-|
    ||---2---2---2---2---2---2-|
    ||---3---3---3---3---x---x-|
    ||---0---0---0---0---x---x-|
    
    Verse…
  • Verse 1
    
         D      A           D
    The first time ever I saw your face
                  G             D
    I thought the sun rose in your eyes
                         G                D
    And the moon and the stars, were the gifts…
  • Intro Solo
    
    G-
    D-
    A-----3333----3333
    E-3333----3333
    
    Verse Riff
    
    G-
    D-
    A----------33333333
    E-33333333
    
    Link
    
    G-
    D-
    A-----3333
    E-3333
    
    Bridge
    
    G-
    D-
    A-5555-3333
    E-
    
    Chorus
    
    G-
    D-
    A-----------------3333333333333333
    E-3333333333333333
    
    Chorus2
    
    G-7777777777777777
    D-5555555555555555-5555555555555555
    A------------------3333333333333333
    E-
    
    
    Order
    
    Intro
    Verse…
  • Intro
    
    G-
    D-12/77777777
    A------------55555555-77777777-77-55
    E-
    
    Verse
    (X4)
    G-
    D-7-(7)-77--7-(7)-77
    A--------------------5-(5)-55---5-(5)-55
    E-
    
    (X1)
    G-
    D-
    A-7777-7777/5555-5555
    E-
    
    Chorus
    (X4)
    G-
    D-7-(7)-77--7-(7)-77
    A--------------------5-(5)--55--5-(5)-55
    E-
    
    (X1)
    G-
    D-
    A-7777-5555
    E-
    
    Solo…
  • Интро перебором
    Dm Bb C Dm [x4]
    
    1 
    Dm
    Let me in
    Came in through the door
    Bb
    Right before my eyes
    C
    All this time
    Dm
    Had my picture on the wall
    Dm
    Saw my fears
    And thought of all those days
    Bb
    And all my…
  • D5 Bm F#m F#m
    
           D5
    What's mine is yours
        Bm                                 F#m
    I'm knocking at your door, just answer me
            F#m
    I can't breathe
      D5             Bm
    I give to you my heart and soul…
  • Em   Em   Em   Em
    
    Em
    Don't know where you're going
    Em
    Used to be a star
    Em
    And everywhere you turn
    Em
    They're raining on your fire
    Em
    You're searching for an answer
    Em
    Your hands and tongue are tied
    Em
    And…
Наверх