Аккорды «Steve Vai»

Steve Vai
Стив Вай (Стивен Сиро Вай, англ. Steven Siro Vai; 6 июня 1960, Лонг-Айленд, штат Нью-Йорк, США) — американский гитарист-виртуоз, также известен как композитор, вокалист, продюсер, актёр. Начал свою карьеру в качестве гитариста и интерпретатора у Фрэнка Заппы, с которым записывался и гастролировал начиная с 1980 года. С 1983 года ведёт самостоятельную карьеру как солирующий гитарист. По состоянию на 2012 год выпустил 9 сольных альбомов общим тиражом более 15 млн экземпляров, трижды лауреат Грэмми.… Читать полностью... Стив Вай (Стивен Сиро Вай, англ. Steven Siro Vai; 6 июня 1960, Лонг-Айленд, штат Нью-Йорк, США) — американский гитарист-виртуоз, также известен как композитор, вокалист, продюсер, актёр. Начал свою карьеру в качестве гитариста и интерпретатора у Фрэнка Заппы, с которым записывался и гастролировал начиная с 1980 года. С 1983 года ведёт самостоятельную карьеру как солирующий гитарист. По состоянию на 2012 год выпустил 9 сольных альбомов общим тиражом более 15 млн экземпляров, трижды лауреат Грэмми. Помимо работы с Заппой сотрудничал и гастролировал с такими коллективами и музыкантами как Alcatrazz, Whitesnake, Дэвидом Ли Ротом, был постоянным участником концертных туров проекта G3. В 1999 году основал собственный лейбл Favored Nations, ориентированный на запись виртуозных исполнителей. Уже долгие годы Стив Вай многими считается одним из лучших гитаристов планеты. И этот титул во многом оправдан. Более 20-ти лет Вай является «законодателем мод» для всего гитарного мира. Его неповторимый стиль игры вызывает восхищение самых искушенных гитаристов, а концерты всегда собирают полные залы. Первая гитара у Стива появилась в 12 лет. Школьные команды, которые собирались шутки ради, зажгли в нем настоящую страсть к инструменту. Курс молодого бойца Вай прошел во всемирно известном музыкальном колледже Беркли, откуда, приобретя достаточные знания и техническое мастерство, он попал в свою первую настоящую рок-группу — коллектив Фрэнка Заппы. С этого момента начинается путь Стива Вая к мировой известности. В 80-е годы он работал с такими легендарными рок-коллективами, как Alcatrazz, David Lee Roth, Whitesnake. Public Image Limited. Однако Стиву было тесно в рамках традиционного песенного формата рок-н-ролла. В 1990 году Вай полностью переключается на сольную карьеру, а в 1992 собирает первый собственный коллектив. С этого момента любой его концерт — это великолепное гитарное шоу с участием музыкантов мирового класса. Предсказать Вая невозможно. Стив не позволяет себе рядовых концертов с предсказуемой постановкой. Каждый номер программы представляет собой оригинальное сценическое действие — это и различные спецэффекты, и демонстрация удивительных примеров гитарного мастерства, и искрометный юмор при общении с залом. Выход каждого нового альбома Стива Вая сопровождает огромный ажиотаж во всем мире. Каждый раз музыкант преподносит сюрпризы: то двойной концертный альбом, записанный во время мирового турне (Alive In An Ultra World), то фрагмент музыкально-поэтической басни со сложной философской концепцией (Real Illusions: Reflections). В июне 2007 года вышел новый альбом гитариста, записанный во время совместных концертов с нидерландским оркестром «Метрополь». На этом двойном диске Стив предстаёт не только в качестве гитариста-виртуоза, но и как композитор оркестровой музыки. Скрыть...
Популярные аккорды Steve Vai:
алфавиту | просмотрам | случайно
  • Neck Pick up
    ||-----------------------|-------------------------------||---------------------|
    ||------------10--10/12--|--1715--12--8--10/12--15p10---||--1715--12--8-------|
    ||*--------7-------------|------------------------------*||---------------------|
    ||*---7/9----------------|------------------------------*||---------------------|
    ||-----------------------|-------------------------------||---------------------|
    ||-----------------------|-------------------------------||---------------------|
    
    
    Bridge…
  • This is not the complete song but it stops at 1:34 and I 
    might finish it someday.
    
    e--------------------------------------------------------
    b-17-17-17-17-17-17-17-17-17-(or 15 bend)----------------
    g--------------------------------------------------------
    d--------------------------------------------------------
    a--------------------------------------------------------
    E--------------------------------------------------------
    
    e--------------------------------------------------------
    b-12-12----------12--------------------------------------
    g-------14-12-14----14----14-14-12-11-12-11--------------
    d-------------------------------------------14-----------
    a--------------------------------------------------------
    E--------------------------------------------------------
    
    e----------------------------------------------11--------
    b-12-12----------12-------------------12-13-12-----------
    g-------14-12-14----14----14-14-14-14--------------------
    d--------------------------------------------------------
    a--------------------------------------------------------
    E--------------------------------------------------------
    
    e----------------------------------------------------------
    b-12-12----------12-13-12----------------------------------
    g-------14-12-14----------14----14-14-12-11-12-11----11----
    d-------------------------------------------------14----12-
    a----------------------------------------------------------
    E----------------------------------------------------------
    
    e-------
    b-----0-
    g-------
    d-14----
    a-------
    E-------
    
    e----------------------------------------------------11--
    b-12-12----------12-13-12------------------12-13-12------
    g-------14-12-14----------14---14-14-14-14---------------
    d--------------------------------------------------------
    a--------------------------------------------------------
    E--------------------------------------------------------
    
    e------------------------------11--9---------------------
    b-12-10-9-7-9--12-11--------12--------11-9-11------------
    g--------------------11-----------------------11---------
    d-----------------------11-------------------------------
    a--------------------------------------------------------
    E--------------------------------------------------------
    
    e--9-12-11--------12-16-14------
    b----------12--------------12---
    g-------------11----------------
    d-------------------------------
    a-------------------------------
    E-------------------------------
    
    e--19-19-19-17-15-17-19-17--17-17-15-14-15-14--------------
    b--------------------------------------------17-19-15-17-12
    g----------------------------------------------------------
    d----------------------------------------------------------
    a----------------------------------------------------------
    E----------------------------------------------------------
    
    e--19-19-17-15-17-19-20-19-17--17-17-17-17-19-20-19-22(b)
    b--------------------------------------------------------
    g--------------------------------------------------------
    d--------------------------------------------------------
    a--------------------------------------------------------
    E--------------------------------------------------------
    
    e--------------------------------------------------------
    b----8-----------------8--------------8------------------
    g----7-----------------7--------------7------------------
    d----6---------5-------6--------------6--------5---------
    a----7-------5---7-----7-----5--------7------5---7-------
    E-0----5-6-7---------0---6-7---3---0-----6-7-------------
    
    e--------------------------------------------------------
    b----8---------------------8---------------8-------------
    g----7---------------------7---------------7-------------
    d----6--0-7-9-7-5-7-(5)----6-------5-------6-------------
    a----7---------------------7-----5---7-----7-----0-------
    E-0----------------------0---6-7---------0---3-2---1-----
    
    e--------------------------------------------------------
    b----8-------------------------------7-8-----------------
    g----7-------------------------7-8-9-----9---------------
    d----6--------5---------5-7--9---------------9-11-12(v)--
    a----7------5---7---5-7----------------------------------
    E-0-----6-7----------------------------------------------…
  • Legend
    ------
    
     h  = hammer-on
     p  = pull-off
     b  = bend
     r  = bend release
     /  = slide up/down
     = natural harmonic
    [5] = artifical harmonic
     ~  = vibrato
     tr = trill
    
    
    
    Majestically                              TH12
    
    E|------|----------0------------|-------------0----------|----------0---
    B|------|-------2----0------/---|-------2--2----0--------|-------2----0-
    G|------|-------2------2---2-4--|-------2--2------2/4/4--|-------2------
    D|------|-----2-2--------2------|-----2-2--2-------------|-----2-2------
    A|-14--|--0--------------------|--0---------------------|--0-----------
    E|------|-----------------------|------------------------|--------------…
  • Riff 1
    
    ---------------------------------        --------------------------------|
    ---------------------------------        --------------------------------|
    ---------------------------------        --------------------------------|
    12--12-12-13-12-10-12-13-12-…
  • E     A     E  A         B   E     A     E  A     B     E   Esus4  E  Esus4
    e----------------------------I------------------------------I------------------|I
    b-12s9--7s5s7s9--7s5s7s9s5-0-I-12s9--7s5s7s9--7s5s7s9-7-5-5-I------------------|I
    g----------------------------I------------------------------I------------------|I
    d----------------------------I------------------------------I------------------|I
    a----------------------------I------------------------------I------------------|I
    E----------------------------I------------------------------I------------------|I…
  • Intro:
        G                              G#
    E|-------------------------------------------------------------------------|
    B|---8-8-8-8-8-8-8-8-8-8-8-8-8-8--8-9--|--------------------------|--------|
    G|---7-7-7-7-7-7-7-7-7-7-7-7-7-7--7-8--|---14--------------------|--------|
    D|---5-5-5-5-5-5-5-5-5-5-5-5-5-5--5-6--|--------------------------|--------|
    A|-------------------------------------|---------ha-ha----ha------|ha------|
    E|-----------------------------------------------3--5-/-0--3-/-0----5-/-0--|…
  • Noise             B2          Rake                  PM     B1        Rake       
    -------------------------------------------------|----------------|-------------
    -------------------------------------------------|----------------|-------------
    -------------------7--5h7~~~---------5-----------|----------4~~~--|-------------
    ------------7---------------------x-----7--7~~~--|------7---------|------x------
    -------6/7-----7---------------x-----------------|---7------------|---x---------
    -------------------------------------------------|----------------|-------------…
  • ------------------------------------------------------------------------------|
    --17--15-13-15-17----15-13-17-15---13-10-8/10----17-20-22-22/20--20/17--------|
    ------------------------------------------------------------------------------|
    ------------------------------------------------------------------------------|
    ------------------------------------------------------------------------------|
    ------------------------------------------------------------------------------|
    
    
    ------------------------------------------------------------------------------|
    --15-13-17-15----13-10-8/10---------------------------------------------------|
    ------------------------------------------------------------------------------|
    ------------------------------------------------------------------------------|
    ------------------------------------------------------------------------------|
    ------------------------------------------------------------------------------|
    
    
    ------------------------------------------------------------|-----------------|
    ------------------------------------------------------------|-----------------|
    ---14b---14--12---12-14-------------------------------------|-----------------|
    -------------------------14----14-12-10-10h12---12^p10------|--12^p10---------|
    -------------------------------------------------------12---|---------12-10---|
    ------------------------------------------------------------|-----------------|
    
    
    ------------------------------------------------------------------------------|
    ------------------------------------------------------------------------------|
    ------------------------------------------------------------------------------|
    ----10--------------------10-12-14-15-14---12--14h17p14--12-------------------|
    -------12-12--------10-12-----------------------------------------------------|
    -12---------------------------------------------------------------------------|
    
    
    ------------------------------------------------------------------------------|
    ---------------17----------------15-------------------------------------------|
    ------------17-----17--14----17-----16---16h17p16-14-----14/16----17/16-14----|
    ---------19-------------------------------------------17----------------------|
    ------19----------------------------------------------------------------------|
    ---17-------------------------------------------------------------------------|
    
    
    ------------------------------------------------------------------------------|
    -------------------------17---------------15----------------------------------|
    -12-12/14-------------17-----17--14----17----16--16h17p16h17p16--14-----------|
    -------------------19-----------------------------------------------17--------|
    ----------------19------------------------------------------------------------|
    -------------17---------------------------------------------------------------|
    
    
    ------------------------------------------------------------------------------|
    -----15--17----15----------21--22---------------------------------------------|
    --17--------------17----23----------------------------------------------------|
    ------------------------------------------------------------------------------|
    ------------------------------------------------------------------------------|
    ------------------------------------------------------------------------------|
    
    
    ------------------------------------------------------------------------------|
    --22b---22-20----20h22--------------------------------------------------------|
    -----------------------21---19--17--17h19----19b--19--17----17----------------|
    ---------------------------------------------------------17----19-17h17-------|
    ------------------------------------------------------------------------------|
    ------------------------------------------------------------------------------|…
  • --------|-------------------------------------------------|----------
    --------|-------------------------------------------------|-repeat---
    -2-4-2--|-5--2--4--2--5--2--4--2--5--2--4--2--5--2--4--2--|-measure--
    --------|-------------------------------------------------|----------
    --------|-------------------------------------------------|--3x's----
    --------|-------------------------------------------------|----------…
  • Tabulature Explanation:
    b--> bend
    r--> realise bend
    h--> hammer
    p--> pull off
    /--> slide up
    --> slide down
    ~--> vibration
    
    Steve:...you like what you hear? Well, here it goes:
    
    E ||----------------------------------|----------------------------------|
    B…
  • (6)=C  (3)=F
    (5)=G  (2)=A
    (4)=C  (1)=D
    
    TAB EXPLAINED:
        *					  P.H
    |---6-------|			|--7----|
    WHAMMY PEDAL			Pitch harmonic
    
    |--5h7h5p4---|			|-7~~~~--|
    HAMMER ON				Vibrate
    & PULL OFF
                        N.H---------------|
    |--/76/12---|…
  • INTRO                                                Main Theme
    -|-------|--------|-------|------------------------------------------|----------|
    -|-------|--------|-------|---------------------------9--10--12--12--|--12------|
    -|--49--|--8/11--/13/13--|------------------------------------------|----------|
    -|-------|--------|-------|------------------------------------------|----------|
    -|--7/7--|--/79---|1711--|------------------------------------------|----------|
    -|-------|--------|-------|------------------------------------------|----------|…
  • Standard tuning
    b=bend
    ~= 1 sec. break
     *note* you dont wanna play this soing supper fast
    
    e--12-------------------12--------------------------
    b-----13-13b~--10-10--------13-13b~----10-8-10b~----
    g---------------------------------------------------
    d---------------------------------------------------
    a---------------------------------------------------
    e---------------------------------------------------
    
    e-------------------------------------------------
    b-10--------7---------5---5-7b~-------------------
    g-----9-9-8---8-8-7-6---6-------------------------
    d-------------------------------------------------
    a-------------------------------------------------
    e-------------------------------------------------…
  • E-----------------10-------------------------||------------5h7p5--------|
    B------8--10--12------/--12----10----8-----||--8--/--10---------5-----|
    G---9-------------7--------------------------||-------------------------|
    D------5--7---9-------/--9-----7-----5--5--||--5--/--7----------------|
    A---7----------------------------------------||-------------------------|
    E--------------------------------------------||-------------------------|
    
    E-------------------||----------------------------------------||--------|
    B------5-7----------||----------12----10--8----10------------||--------|
    G------5h7--5-------||------------------------------7--/--12--||--9-----|
    D---5----------5h7--||------/9--------7---5--5/7-------------||--------|
    A-------------------||--5---------------------------5--/--10--||--7-----|
    E-------------------||----------------------------------------||--------|
    
    E------------10--7-------------------||----------------------/--12------|
    B------------8------------8----------||--8-----8--10--12----------------|
    G-------------------7-----7----------||--7--9----------------/--9-------|
    D----------------------7--7h9p7------||--9-----5--7---9-----------------|
    A--------------------------------10--||-----7---------------------------|
    E------0--0--------------------------||---------------------------------|…
  • nh  nh  nh wb
    ||------------------|--------------------------------------7--------------------|
    ||------------------|--9--------7--------9--------9--------7--9-7--7------------|
    ||-----~~--|--9--------8--------9--------9--------8--9-7--7------------|
    ||------------------|--9--------9--------9--------9--------9--9-7--7------------|
    ||------------------|--7--------7--------7--------7--------7--75--5--5--5------|
    ||------------------|-----0--0-----0--0-----0--0-----0--0-----------------------|
    
    --------5--------5--|----------3----------|-----------0--------|----------------|
    5----------5--5-----|----------3--3-------|-----1--3-----1-----|----------------|
    6-------------6-----|-------5--------5---|--3-----2--------3--|--5-------------|
    7-------------------|--7-5--5--------5-3--|--3--------------3--|--5--5--5--5----|
    5--4/5--------------|--53--3-------------|--1-----------------|--3--3--3--3----|
    --------------------|---------------------|--------------------|----------------|
    
    ------------|--------------------------|--------------|-------------------------|
    ------------|--------------------------|-----7--5--7--|--7--5--9----------------|
    ------------|--2-----------2-----------|-----7--6--7--|--7--6--9----------------|
    5--5--5--5--|--2--2--------2--2--------|-----7--7--7--|--7--7--9----------------|
    3--3--3--3--|--0--0--------0--0--------|--------------|--------7----------------|
    ------------|--------3--0--------3--0--|--------------|-------------------------|…
  • Legend:
    -------
    x mute          b bend
    r release       h hammer on
    p pull off      ~ vibrato
    / slide up       slide down
    T tap           P.H. pinch harmonic
    ! harmonic
    
    Tuning: CBCFAD
    
    W/Wah Pedal…
  • Intro
    
      Guitar 1 w. bridge pick-up
    e:-----------------------------------------------&
    B:-----------------------------------------------&
    G:-----------------------------------------------&
    D:-----------------------------------------------&
    A:-----------------------------------------------&
    E:-0--2--0--4--4--4--0--2--0--4b(5)--b(5)--b(5)~-&
    
    e:----------------------------------------------&
    B:----------------------------------------------&
    G:----------------------------------------------&
    D:----------------------------------------------&
    A:----------------------------------------------&
    E:-0--2--0--4--4--4--0--2--0-6b(7)--b(7)--b(7)~-&…
  • listen to the record, it's a funny timing
    E||------------------|----------------------------|-------------------|
    B||------------------|----------7h8h7-------------|-------------------|
    G||------------------|----------------7---9/4h2---|-------------------|
    D||------------------|------------------7-------4-|--2----------------|
    A||0-00-0000-00-0000-|----------------------------|--0----------------|
    E||------------------|----------------------------|-------------------|
    
    ----------------------------------|------------------------|
    ----------14h15h14----------------|---------10--10------8--|
    -------------------14----16/9-7---|---------9---9-------7--|
    ----------------------14--------9-|--7------7---7-------5--|
    ----------------------------------|------------------------|
    ----------------------------------|------------------------|
    
    ------------------------|-----------------------|
    --8------12--12----8----|--8/10--10-------------|
    --7------11--11----7----|--7/9---9--------------|
    --5------9---9-----5----|--5/7---7--------------|
    ------------------------|-----------------------|
    ------------------------|-----------------------|
    
    ----------------------------------|------------------------|
    ----------14h15h14----------------|---------10--10------8--|
    -------------------14----16/9-7---|---------9---9-------7--|
    ----------------------14--------9-|--7------7---7-------5--|
    ----------------------------------|------------------------|
    ----------------------------------|------------------------|
    
    ------------------------|-----------------------|--------------------------|
    --8------12--12----8----|--8/10--10-------------|----------8h7-------------|
    --7------11--11----7----|--7/9---9--------------|--------------7---9/4-2---|
    --5------9---9-----5----|--5/7---7--------------|----------------9-------4-|
    ------------------------|-----------------------|--------------------------|
    ------------------------|-----------------------|--------------------------|
    
    --------------------5------|--------------------7------|
    --------------------5------|--------------------7------|
    ---------------------------|---------------------------|
    --2------2------4----------|--2------4------6----------|
    --2------4------5----------|--4------5------7----------|
    -----0-0----0-0--------0---|-----0-0----0-0--------0---|
    
    --------------------10------|---------------------12------|
    --------------------10------|----------------9----12------|
    ----------------7-----------|--6------7------9------------|
    --4------6------7-----------|--6------7------9------------|
    --5------7------9-----------|--7------9------11-----------|
    -----0-0----0-0---------0---|-----0-0----0-0----------0---|
    
    ----------------7---------5------|--------------------12-------------10------|
    --10h9------------7-------5------|--15h14----------------12----------10------|
    -------9---11/9-----9/6/7--------|--------14----16/14-------14-13/11---------|
    ---------9-----------------------|-----------14------------------------------|
    ---------------------------------|-------------------------------------------|
    -----------------------------0---|---------------------------------------0---|
    
    --------0-------------0----------0-------|
    --21/19---19-19h17------17-------15------|
    -------------------19------18/16---------|
    -----------------------------------------|
    -----------------------------------------|
    -------------------------------------0---|
    
    ----------------------------------------|----------------------|
    --17/19-19--19/21-21-21-21-21-21-21-----|----------10----------|
    --16/18-19--18/21-21-21-21-21-21-21-----|----------9-----------|
    ----------------------------------------|--2-------7-----------|
    ----------------------------------------|--0----0--------------|
    ----------------------------------------|----------------------|
    
    ---------------------------|------------------5----|--------------------------|
    ---------------------------|------------------5----|--------------------------|
    ---------------------------|------------------2----|--------------------------|
    --5----4---5----4--5h0-0-0-|--0----4---2-----------|--------------------------|
    -----0---------------------|-----0-----0-----------|--0--0-0-0----0--0-0-0----|
    ---------------------------|-----------------------|--------------------------|
    
    ----------------------|---------------------------|------------------5----|
    ----------10----------|---------------------------|------------------5----|
    ----------9-----------|---------------------------|------------------2----|
    --2-------7-----------|--5----4---5----4--5h0-0-0-|--0----4---2-----------|
    --0----0--------------|-----0---------------------|-----0-----0-----------|
    ----------------------|---------------------------|-----------------------|
    
    --------------------------|----------------------|---------------------------|
    --------------------------|----------10----------|---------------------------|
    --------------------------|----------9-----------|---------------------------|
    --------------------------|--2-------7-----------|--5----4---5----4--5h0-0-0-|
    --0--0-0-0----0--0-0-0----|--0----0--------------|-----0---------------------|
    --------------------------|----------------------|---------------------------|
    
    ------------------5----|--------------------------|----------------------|
    ------------------5----|--------------------------|----------10----------|
    ------------------2----|--------------------------|----------9-----------|
    --0----4---2-----------|--------------------------|--2-------7-----------|
    -----0-----0-----------|--0--0-0-0----0--0-0-0----|--0----0--------------|
    -----------------------|--------------------------|----------------------|
    
    ---------------------------|------------------5----|--------------------------|
    ---------------------------|------------------5----|--------------------------|
    ---------------------------|------------------2----|--------------------------|
    --5----4---5----4--5h0-0-0-|--0----4---2-----------|--------------------------|
    -----0---------------------|-----0-----0-----------|--0--0-0-0----0--0-0-0----|
    ---------------------------|-----------------------|--------------------------|
    
    -------------------------|-------------------------|-------------------------|
    --3----------------------|--2----------------------|--3----------------------|
    --2----------------------|--2----------------------|--2----------------------|
    -------------------------|-------------------------|-------------------------|
    ---------0--0--0-0-0--0--|---------0--0--0-0-0--0--|---------0--0--0-0-0--0--|
    -------------------------|-------------------------|-------------------------|
    
    -------------------------|-------------------------|-------------------------|
    -------------------------|--3----------------------|--2----------------------|
    --4----------------------|--2----------------------|--2----------------------|
    --2----------------------|-------------------------|-------------------------|
    --0------0--0--0-0-0--0--|---------0--0--0-0-0--0--|---------0--0--0-0-0--0--|
    -------------------------|-------------------------|-------------------------|
    
    ----------------------|----------------------|--------------------|
    --3----2--------------|--3-------3-----------|--------------------|
    --2----2----4----2----|--2-------2-----------|--------------------|
    --2----2----2----2----|--0-------0-----------|-----------x--------|
    ----------------------|----------------------|--------------------|
    ----------------------|--3----3---------3----|--3-----------------|
    
    ----------------------|-----------------------------|---------------------3----|
    ----------------------|-----------------------------|---------------------3----|
    ----------2------2----|-----------------------------|---------------------0----|
    ----------0------0----|--5----4-----5----4--5h0-0-0-|--0----4-----2------------|
    ----------------------|-----------------------------|--------------------------|
    --3----3---------3----|-----3---3-3-----------------|-----3---3-3------3-------|
    
    ---------------------------|----------------------|---------------------------|
    ---------------------------|----------10----------|---------------------------|
    ---------------------------|----------9-----------|---------------------------|
    ---------------------------|--2-------7-----------|--5----4---5----4--5h0-0-0-|
    ----------------------0----|--0----0--------------|-----0---------------------|
    --3--3-3-3---3-3--3-----3--|----------------------|---------------------------|
    
    ------------------5----|-----------------------------------------|
    ------------------5----|-----15-15-15-15-15-15-15-15-15-15-------|
    ------------------2----|-----14-14-14-14-14-14-14-14-14-14-------|
    --0----4---2-----------|--2--------------------------------------|
    -----0-----0-----------|--0--------------------------------------|
    -----------------------|-----------------------------------15/---|
    
    ----------------------|---------------------------|-----------------5----|
    ----------10----------|---------------------------|-----------------5----|
    ----------9-----------|---------------------------|----------------------|
    --2-------7-----------|--5----4---5----4--5h0-0-0-|--0---4---2-----------|
    --0----0--------------|-----0---------------------|------0---0-----------|
    ----------------------|---------------------------|----------------------|
    
    -----------------------------|----------------------|
    -----------------------------|----------10----------|
    -----------------------------|----------9-----------|
    --------7--------------------|--2-------7-----------|
    --0---0-0----0-0-0-0-0-0-0-0-|--0----0--------------|
    -----------------------------|----------------------|
    
    ---------------------------|------------------5----|
    ---------------------------|------------------5----|
    ---------------------------|------------------2----|
    --5----4---5----4--5h0-0-0-|--0----4---2-----------|
    -----0---------------------|-----0-----0-----------|
    ---------------------------|-----------------------|
    
    -----------------------------|-------------------------|
    -----------------------------|--3----------------------|
    -----------------------------|--2----------------------|
    -----------------------------|-------------------------|
    --0---0-0----0-0-0-0-0-0-0-0-|---------0--0--0-0-0--0--|
    -----------------------------|-------------------------|
    
    -------------------------|-------------------------|-------------------------|
    --2----------------------|--3----------------------|-------------------------|
    --2----------------------|--2----------------------|--4----------------------|
    -------------------------|-------------------------|--2----------------------|
    ---------0--0--0-0-0--0--|---------0--0--0-0-0--0--|--0------0--0--0-0-0--0--|
    -------------------------|-------------------------|-------------------------|
    
    -------------------------|-------------------------|----------------------|
    --3----------------------|--2----------------------|--3----2--------------|
    --2----------------------|--2----------------------|--2----2----4----2----|
    -------------------------|-------------------------|--2----2----2----2----|
    ---------0--0--0-0-0--0--|---------0--0--0-0-0--0--|----------------------|
    -------------------------|-------------------------|----------------------|
    
    ----------------------|--------------------|----------------------|
    --3-------3-----------|--------------------|----------------------|
    --2-------2-----------|--------------------|----------2------2----|
    --0-------0-----------|-----------x--------|----------0------0----|
    ----------------------|--------------------|----------------------|
    --3----3---------3----|--3-----------------|--3----3---------3----|
    
    -----------------------------|---------------------3----|
    -----------------------------|---------------------3----|
    -----------------------------|---------------------0----|
    --5----4-----5----4--5h0-0-0-|--0----4-----2------------|
    -----------------------------|--------------------------|
    -----3---3-3-----------------|-----3---3-3------3-------|
    
    ---------------------------|----------------------|---------------------------|
    ---------------------------|----------10----------|---------------------------|
    ---------------------------|----------9-----------|---------------------------|
    ---------------------------|--2-------7-----------|--5----4---5----4--5h0-0-0-|
    ----------------------0----|--0----0--------------|-----0---------------------|
    --3--3-3-3---3-3--3-----3--|----------------------|---------------------------|
    
    --------------------5---7h|
    --------------------5-----|
    --------------------------|
    --0----4h0---2------------|
    -----0-----0-0------------|
    --------------------------|
    
    --10-12h10h7--------------------------------------------------|
    -------------12h10h8/7h8h10-12h10h8h7-------------------------|
    --------------------------------------12h9h7------------------|
    ---------------------------------------------12h9h7-----------|
    ----------------------------------------------------12h9h7/5--|
    --------------------------------------------------------------|
    
    ------------------------|------------------------|-----------------------|
    ---------10--10------8--|--8------12--12----8----|--8/10--10-------------|
    ---------9---9-------7--|--7------11--11----7----|--7/9---9--------------|
    --7------7---7-------5--|--5------9---9-----5----|--5/7---7--------------|
    ------------------------|------------------------|-----------------------|
    ------------------------|------------------------|-----------------------|
    
    ----------------------------------|------------------------|
    ----------14h15h14----------------|---------10--10------8--|
    -------------------14----16/9-7---|---------9---9-------7--|
    ----------------------14--------9-|--7------7---7-------5--|
    ----------------------------------|------------------------|
    ----------------------------------|------------------------|
    
    ------------------------|-----------------------|
    --8------12--12----8----|--8/10--10-------------|
    --7------11--11----7----|--7/9---9--------------|
    --5------9---9-----5----|--5/7---7--------------|
    ------------------------|-----------------------|
    ------------------------|-----------------------|
    
    ----------------------------------|---------------------------------|
    ----------14h15h14----------------|---------------------------------|
    -------------------14----16/9-7---|---------------------------------|
    ----------------------14--------9-|---------------------------------|
    ----------------------------------|--0-0-0-0-0-0-0-0-0-0-0-0--0-0-0-|
    ----------------------------------|---------------------------------|
    
    ---------------------------------|---------------------------------|
    ---------------------------------|---------------------------------|
    ---------------------------------|---------------------------------|
    ---------------------------------|---------------------------------|
    --0-0-0-0-0-0-0-0-0-0-0-0--0-0-0-|--0-0-0-0-0-0-0-0-0-0-0-0--0-0-0-|
    ---------------------------------|---------------------------------|…
  • Intro: Ab     Absus4  Ab  Absus4 Gb Db
    
    Ab     Absus4  Ab  Absus4 Gb Db
    Repent, repent, repent ye sinners -
    
    Ab
    What do you think you got,
    Absus4                       Gb    Db
    When you thought you had a lot
    Ab…
  • Intro riffing
       A5                               D5
    e---------------------------------------------|
    B---------------------------------------------|
    G--2---------2----------2--------2---7---2----|    repeat many times
    D--2---------2----------2--------2---7---2----|
    A--0---------0----------0--------0---5---0----|
    E-----3-2-3----3-2-3-0----3*-2-3--------------|…
  • slow
                                                      bend   b1
    |-5-----5---5-7-97-5-7-----5-5-7-97-5-7-7--||-------------------------------
    |-5-x-x-5-x-5-7-97-5-7-----5-5-7-9-7-5-7-7--||----9------9-9p7---------------
    |-------------------------------------------*||-----------------9-9~~~-9-9----
    |-------------------------------------------*||-------------------------------
    |--------------------------------------------||-------------------------------
    |--------------------------------------------||-------------------------------…
  • Notation Legend:
    
    b=bend; r=release; h=hammer on; p=pull off; t=tapping
    
    /=slide up; = slide down; V..=upstroke; ^=downstroke
    
    P.M.=Palm Muting; A.H.=Artificial Harmonic;
    
    Е=yank whammy bar rapidly down and then up
    ******************************************************************************…
  • fast=133
          -3   -3  -3  -3  -3  -3  -3  -3  -3  -3
    |-----------------------------------------------------------
    |-----------------------------------------------------------
    |--0/7--/--/--/--/--/--/--/--/--/--/--------------
    |------/--/--/--/--/--/--/--/--/--/---------------
    |-----------------------------------------------------------
    |-----------------------------------------------------------
    |-----------------------------------------------------------
    slow…
  • e-----------------8h12p8----------------------------4h7p4-------------
    b--------------10-------10------------------------5------5------------
    g------------9-------------9------------------4h7----------7p4--------
    d-------7h10-----------------10p7-----------6------------------6------
    a-----7---------------------------7-----5h7----------------------7p5--
    E-5h8-------------------------------8-7------------------------------7
    
    to…
  • (6)=C (3)=F
    (5)=G (2)=A
    (4)=C (1)=D
                                   W/Keyboard
      Siren noises      Siren noises           P.M-----|
    |------------------|--------------------------------|
    |------------------|--------------------------------|
    |------------------|--------------------------------|
    |------------------|Distorted-----------------------|
    |------------------|------4-(4)-(4)-(4)-(4)-4-4-4-4-|
    |------------------|-/18-4-(4)-(4)-(4)-(4)-4-4-4-4-|…
  • pickslides   riff A--->                                b1
    |-----------|-----------------------|--------------------------|--------------
    |-----------|-----------------------|--------------------------|--------------
    |-----------|-----------------------|--------------------------|--------------
    |-----------|-----------------------|--------------------------|--------------
    |-----------|---3-4-5-3---3-4-5-3---|---3-4-5-3---3-5----------|---3-4-5-3----
    |-x--x--x|-5---------5---------5-|-5---------5------3-(5)-5-|-5------------…
  • Standard Tuning
    e------------------------------|
    b----------------------------4-|
    g----------------------------4-|
    d----------------------------4-|
    a-4--22-22-22-22--4-22-22-22-2-|
    E-2--00-00-00-00--2-00-00-00---|
    
    
    e------------------------------|
    b------------------------------|
    g----9***----------------------|…
  • Legend
    ------
    
     h  = hammer-on
     p  = pull-off
     b  = bend
     r  = bend release
     /  = slide up/down
     = natural harmonic
    [5] = artifical harmonic
     ~  = vibrato
     tr = trill
     T  = Tap
    
    
    
                       P.M-------| A.H---------|…
  • Harmony effect                      /////
    E---------------------------------|-----14------------------------------|
    B---------------------------------|-----12------------------------------|
    G---------------------------------|-----11------------------------------|
    D---------------------------------|-------------------------------------|
    A---------------------------------|-------------------------------------|
    E---------------------------------|-------------------------------------|…
  • ECHO
    
    1_------------------------------------------------------------------|
    2_------------------------------------------------------------------|
    3_------------------------------------------------------------------|
    4_------------2--4--4/6--6/7-7/6-6/7--9-----------------------------|
    5_----------2----------------------------9--7--9--7--9--5--4/5--4/5-|
    6_--0---------------------------------------------------------------|
    
    _--------------|
    _--------------|
    _--------------|
    _--------------|
    _---4--2--0h2--|
    _--------------|
    
    THATS…
  • ----------------------------------------------|----------
    ----------------------------------------------|-repeat---
    -2-4-2--|-5--2--4--2--5--2--4--2--5--2--4--2--5--2--4--2--|-measure--
    ----------------------------------------------|----------
    ----------------------------------------------|--3x´s----
    ----------------------------------------------|----------…
  • INTRO!!!
    |-----0---(0)-------------0--(0)--0-0-0------0------0----|
    |-----0---(0)-------------0--(0)--0-0-0------0------0----|
    |-----3---(3)-------------4--(4)--8-8-8--(8)6--(6)4----|
    |---2---------4/64~----2--------------------------------|
    |--------------------------------------------------------|
    |-2-------------------2----------------------------------|
    
    
    
    |-----0---(0)---------------0--(0)--0-0-0------0------0----|
    |-----0---(0)---------------0--(0)--0-0-0------0------0----|
    |-----3---(3)---------------4--(4)--8-8-8--(8)6--(6)4----|
    |---2---------------------2--------------------------------|
    |----------------------------------------------------------|
    |-2---------------------2----------------------------------|
    |…
  • E-|---------------------------------------------------13--12------------------|
    B-|-10--9-----12--11------------------------------11----------13----------12--|
    G-|--------9----------11------------------------------------------14--13------|
    D-|-----------------------11--10--13----------13------------------------------|
    A-|-----------------------------------12--11----------------------------------|
    E-|---------------------------------------------------------------------------|…
Наверх