Аккорды «Stone Temple Pilots»

Stone Temple Pilots
Стоун Темпл Пайлотс (Stone Temple Pilots) - американская гранж-группа, основана в 1986 году. Состав: Скотт Уэйлэнд (Scott Weiland, р. 27 октября 1967, Санта Круз, Калифорния) (вокал), Роберт Де Лео (Robert DeLeo, р. 2 февраля 1966) (бас-гитара), Дин Де Лео (Dean DeLeo, р. 21 августа 1961) (гитара), Эрик Крец (Eric Kretz, р. 7 июня 1966) (ударные). Скотт Уэйленд и Роберт Де Лео познакомились в Южной Калифорнии на концерте группы Black Flag и на основании общих музыкальных интересов решили посотрудничать… Читать полностью... Стоун Темпл Пайлотс (Stone Temple Pilots) - американская гранж-группа, основана в 1986 году. Состав: Скотт Уэйлэнд (Scott Weiland, р. 27 октября 1967, Санта Круз, Калифорния) (вокал), Роберт Де Лео (Robert DeLeo, р. 2 февраля 1966) (бас-гитара), Дин Де Лео (Dean DeLeo, р. 21 августа 1961) (гитара), Эрик Крец (Eric Kretz, р. 7 июня 1966) (ударные). Скотт Уэйленд и Роберт Де Лео познакомились в Южной Калифорнии на концерте группы Black Flag и на основании общих музыкальных интересов решили посотрудничать в творческом тандеме. Назвались Swing и стали записываться на домашней студии Роберта. В одном из клубов Сан-Диего друзья нашли себе ударника: он выступал там с какой-то командой и произвел впечатление тем, что барабанил так громко, что не было слышно вокалиста. В результате Эрик Карц (так звали усердного «стукача») стал третьим участником группы. Вакантное место лидер-гитариста занял родной брат Роберта — Дин. Обновленный коллектив придумал себе новое название — Mighty Joe Young, и в 1991 начал репетировать. В апреле 1992 года музыканты подписали контракт с Аtlantic Records и снова переименовались, поскольку выяснилось, что группа Mighty Joe Young уже существует. На сей раз в качестве названия был взят логотип подвернувшейся под руку нефтяной компании STP, к которому придумали подходящую расшифровку. Так появились Stone Temple Pilots. К сентябрю 1992 года был готов дебютный альбом «Core», который критики обвиняли во вторичности и подражании Pearl Jam. Однако альбом раскупался неплохо, а MTV пригласила дебютантов для записи Unplugged'а, а впоследствии признало Stone Temple Pilots лучшей альтернативной группой. Свой второй альбом «Purple» Stone Temple Pilots выпустили в 1994 году с учетом всех своих прежних ошибок. Альбом получился более самобытным, его очень ждали, а потому он довольно быстро обретает высокий рейтинг и в течение трех недель возглавляет список лучших альбомов в США. Обратной стороной знаменитости бывают известные проблемы: с конца 1994 года у вокалиста и основателя группы начинаются серьезные трудности с пристрастием к наркотикам. Сперва последовало несколько арестов за хранение и употребление героина, был возбужден ряд уголовных дел. К концу 1995 года дело зашло настолько далеко, что Скотт Уэйлэнд сам попросил товарищей по команде сдать его в клинику для наркоманов. Stone temple Pilots записывали свой третий альбом — «Tiny Music... Songs From The Vatican Gift Shop» в экстремальных условиях: вокалист появлялся в студии в сопровождении конвоя дюжих санитаров. По стилю эта пластинка была более мягкой, чем предыдущая и содержала интересные эксперименты по смешению джаза и гранджа. Однако продажи у альбома были весьма скромные: ситуация усугублялась переносом концертного тура из-за нового героинового «запоя» вокалиста с лета на конец октября. Тур состоялся, но был досрочно прерван: Уэйлэнда отправили лечиться заново, а группа прекратила свое существование. Эрик Крец и братья Де Лео в сотрудничестве с вокалистом Дэйвом Коттсом организовывают новый проект Talk Show и записывают альбом с точно таким же названием. Скотт Уэйлэнд выпускает сольник «12 Bar Blues», о стиле которого все сказано в названии. В конце 1998 года к полной неожиданности своих поклонников Stone Temple Pilots заявляют о возобновлении своей творческой деятельности в старом составе. В 1999 году группа во главе с «завязавшим» Уйэлэндом записывает альбом с безликим названием «4» и начинает концертные выступления. Коллектив отважился на полномасштабный тур, который с некоторыми паузами длится до 2000 года и заканчивается совместными выступлениями с Red Hot Chili Peppers. «Shangri-La Dee Da», вышедший в 2001 году, по уровню исполнительского мастерства приближается к нашумевшему «Purple», хотя и не имеет такого громкого успеха. В 2003 году группа выпускает сборник своих лучших вещей под названием «Thank you». Тогда же Уэйланд образовал группу Velvet Revolver совместно со Слэшем (англ. Slash) - соло и ритм-гитара, Дэйвом Кушнером (англ. Dave Kushner) - ритм гитара, Даффом МакКаганом (англ. Duff McKagan) - бас гитара, бэк-вокал, и Мэттом Сорумом (англ. Matt Sorum) - ударные, перкуссия, бэк-вокал. Группа выпустила два альбома: Contraband (2004 г.) и Libertad (2007 г.) В 2010 году STP вновь объединились и записали одноименный альбом «Stone Temple Pilots». 19 мая 2013 года группой выпущен новый сингл Out of time с Честером Беннингтоном. Группой было официально объявлено о том, что Честер Беннингтон становится лидирующим вокалистом группы. Музыкант заверил, что постарается совмещать два коллектива: «Я никогда не пожертвую интересами Linkin Park ради другой группы, но в то же время я буду стараться отдавать Stone Temple Pilots себя на 100% » Кроме того, Честер Беннингтон признался, что давно являлся поклонником именно этой группы, и даже ходил на их концерты, назвав работу в коллективе воплощением мечты. [8] [9] В ноябре 2015 года стало известно об уходе Честера Беннингтона из группы. Последний это объяснил тем, что хочет больше времени уделять своей семье и Linkin Park[10]. 3 декабря 2015 года ушёл из жизни Скотт Вейланд, он был найден мёртвым в туровом автобусе группы Scott Weiland & the Wildabouts во время стоянки в городе Блумингтон, штат Миннесота. Согласно официальному сообщению музыкант умер во сне, в тот момент ему было 48 лет. Согласно заявлению заместителя начальника полиции Блумингтона Дэниса Оттернесса, результаты токсикологической экспертизы покойного будут обнародованы в срок от четырёх до восьми недель. В отчёте судмедэксперта округа Хеннепин, Миннесота, опубликованном 18 декабря, причиной смерти была названа передозировка кокаина, амфетамина и алкоголя на фоне сердечно-сосудистых заболеваний и бронхиальной астмы. Скотт Вэйленд был похоронен 10 декабря на кладбище Hollywood Forever в Лос-Анджелесе. Проститься с музыкантом пришли участники Stone Temple Pilots и Velvet Revolver. В феврале 2016 года, Stone Temple Pilots запустили онлайн-прослушивание для нового вокалиста, заявив: «Если вы знаете, что нужно группе, чтобы сделать студийную запись с этой группой, и провести тур с этой группой, мы желаем услышать это от вас»[11]. В сентябре того же года появились слухи о том, что главным кандидатом на место вокалиста группы стал филиппинский музыкант Джон Борха[12]. В феврале 2017 года сайт AlternativeNation.net сообщил, что группа уже выбрала вокалиста, однако, его имя не раскрывалось. В той же статье было указано, что Борха и финалист 3 сезона американского шоу X Factor (франшиза) Джефф Гутт являлись "двумя претендентами на место". 20 июля 2017 года Беннингтон совершил самоубийство в возрасте 41 года. Группа выразила соболезнования в открытом письме, адресованном своему бывшему коллеге. 26 июля 2017 года группа анонсировала юбилейное переиздание альбома Core в честь 25-летия со дня выхода альбома, которое вышло 29 сентября 2017 года. Переиздание является юбилейным сборником, в который вошли ремастеренная версия альбома, ранее невыпущенные демо-версии песен и бисайды, а также отдельные песни из живых выступлений в 1993 года (концерты в Castaic Lake Natural Amphitheater, на Reading Festival, и MTV Unplugged). В октябре 2017 года, Дин ДеЛео сказал, что поиск нового вокалиста "шел хорошо", и что "группа вела работу над новым материалом". 14 ноября 2017 года группа объявила, что Джефф Гутт был выбран в качестве ее нового вокалиста. 15 ноября 2017 года группа выпустила новую песню под названием "Meadow", которая войдет в грядущий студийный альбом. Дискография Core (1992) Purple (1994) Tiny Music... Songs From The Vatican Gift Shop (1996) No 4 (1999) Shangri-La Dee Da (2001) Thank you (2003) Stone Temple Pilots (2010) Stone Temple Pilots [2] (2018) Скрыть...
Популярные аккорды Stone Temple Pilots:
алфавиту | просмотрам | случайно
  • Bass Tab
      
      Intro
    G:------------------|------------------|-----------------|-----------------|
    D:------------------|------------------|-----------------|-----------------|
    A:--------------1---|----1-1-1-1---1-2-|-3---3-----------|---------1-3-4---|
    E:--3---3-----------|------------3-----|-------------3---|---3-3-3---------|
    
    
    G:-----------------|--------------------|-----------------|-----------------|
    D:-----------------|--------------------|-----------------|-----------------|
    A:-5-----------1---|------1-1-1-1---1-2-|-3---3-----------|---------1-3-4---|
    E:-----3-----------|--------------3-----|-------------3---|---3-3-3---------|
    
    
    G:-----------------|--------------------|-----------------|-----------------|
    D:-----------------|--------------------|-----------------|-----------------|
    A:-5-----------1---|----1-1-------1-2---|-3---3-----------|---------1---3-4-|
    E:-----3-----------|------------3-------|-------------3---|---3-3-3---------|
    
    
    G:-----------------|-----------------|------------------|-----------------|
    D:-----------------|-----------------|------------------|-----------------|
    A:-5-----------1---|----1-1------1-2-|-3---3------------|-----------------|
    E:-----3-----------|-----------3-----|-------------3----|-----------------|
    
    
    G:----------------||
    D:----------------||
    A:----------------||
    E:----------------||…
  • Standard Tuning – EBGDAE
    
    Intro Solo
    e|---------------------------------------------------------------------------|
    B|-------------------------------------------------------4~-4b5r4------------|
    G|-4/6~~~~~~~--4--4/64-----------------------------5~~------------4/6~~~----|
    D|-----------------------6~~~--64~-----------4/6~~--------------------------|
    A|----------------------------------/7~~--7----------------------------------|
    E|---------------------------------------------------------------------------|
    
    Riff…
  • (Chords plus some tabs)
    
    Opening
        C   B7(Open E)  Em |  C  	B7	Em
       					
    	E:--x--			E:--2--
    	B:--x--			B:--x--	
    	G:--2--			G:--2--	
    	D:--1--			D:--1--	
    	A:--2--			A:--2--	
    	E:--x--			E:--x--		
    
    *   Alternate the B7(Open…
  • h = hammer on
    
    Here's the verse riff..
    G|-------------------9----9--9h11--
    D|-------9-9---11-11---11----------
    A|-9---9---------------------------
    E|---------------------------------
    
    G|-------------------9----9-8------
    D|-------9-9---11-11---11-----9----
    A|-9---9---------------------------
    E|---------------------------------
    
    
    Chorus…
  • E? 022130
    C7 032310
    
    Repeat these two chords for the intro, verses and slide guitar
    interlude.
    
    Chorus is all standard chords
    G       A                  C             
    Time to take her home  her dizzy head is conscience…
  • (Main Riff)
    E|----------------------------------------
    B|----------------------------------------
    G|----------------------------------------
    D|--4-4-4-4~7-7-xx-xx-xx-xx-x
    A|--4-4-4-4~7-7-xx-xx-xx-xx-x
    E|--2-2-2-2~5-5-xx-xx-xx-xx-x…
  • INTRO 
    
            
    e-----------------------------------------------------------
    b-----------------------------------------------------------
    G-----------------------------------------------------------
    D---0--2--3--3--3--2-----0--1--1--1--0----------------------
    A---------------------3-----------------2--2--3--3--3--2----
    E-----------------------------------------------------------…
  • Dropped-D Tuning
        
       Intro:
        
       -------------------------------------------------------------------------------
       --------------------------------------------------------------------------------
       --------------------------------------------------------------------------------…
  • Verse 1 & 3 I got a picture... & Spin me out...
    |---------------------------------------------------------------------|
    |--------------------------------------------------------------------2|
    |-------------5-4-3-3-2-1---------5---------------5-4-3-3-2-1-0-0-2---|
    |0-0-3-4-5-5---------------3-3-5-----0-0-3-4-5-5----------------------|
    
    Verse…
  • E F#m G    Am     Am9    D Dsus4 C/G D11 Bm Bb Em
    -0--2--3--0----5--7----7--2---3----0---0---2--1--0----
    -0--2--3--1----5--5----5--3---3----1---3---3--3--0----
    -1--2--4--2-or-5--5-or-5--2---2----0---0---4--3--0----
    -2--4--5--2----7--7----5--0---0----2---4---4--3--2----
    -2--4--5--0----7--7----7-----------3---5---2--1--2----
    -0--2--3-------5--5----5-----------3---5---------0----
    
    Basic…
  • Intro:
    e--0----0--0--0--0---0----0----0--0--0---0----0-0-0------------|
    B--0----2--2--2--2---2----0----2--2--2---0----2-3-2------------|
    G--1----2--2--2--2---2----1----2--2--2---1----2-2-2------------|
    D--2----2--2--2--2---2----2----2--2--2---2----2-2-2------------|4x
    A--0----0--0--0--0---0----0----0--0--0---0----0-0-0------------|
    E--------------------------------------------------------------|
    
    
    e--0---0---5---------|
    B--2---5---3---------|
    G--2---6---4---------|
    D--2-------5---------|
    A--0-----------------|
    E--------------------|
    
    Verse:
    e--0----0--0--0--0---0----0----0--0--0---0----0-0-0------------|
    B--0----2--2--2--2---2----0----2--2--2---0----2-3-2------------|
    G--1----2--2--2--2---2----1----2--2--2---1----2-2-2------------|
    D--2----2--2--2--2---2----2----2--2--2---2----2-2-2------------|
    A--0----0--0--0--0---0----0----0--0--0---0----0-0-0------------|
    E--------------------------------------------------------------|
    
    Pre-Chorus:
    e-----------------------------------------|
    B-----------------------------------------|
    G--2-2-2-2-/-10-10-10-10---10-/-12--------|
    D--2-2-2-2-/-10-10-10-10---10-/-12--------|
    A--0-0-0-0----0--0--0--0----8-/-10--------|
    E-----------------------------------------|
    
    Chorus…
  • Drop-D Tuning
    -------------------------------------------------------------------------
    -------------------------------------------------------------------------
    -------------------------------------------------------------------------
    -0---0------653/53-0---0----653/53-0---0----653/5-----653/5----
    -0---0------653/53-0---0----653/53-0---0----653/5-----653/5----
    -0---0------653/53-0---0----653/53-0---0----653/5-----653/5----…
  • Intro    Verse
    A|---0---||.----------------|----------------|---004060-07060-|---004060-07060-|
    E|-------||.0222-02222-02200|0222-02222-02200|4/5-------------|4/5-------------|
    
    A|----------------|----------------|---004060-07060-|---004060-07060-|
    E|2-22-02222-02200|0222-02222-02200|4/5-------------|4/5-------------|
    
    A|-----------------|----------------|0-00-0--000-|------------|
    E|/2-22-02222-02200|0222-02222-02200|------------|4-4-4-04-4-3|…
  • Intro
    G-|---------------------------------------------------------------------------|
    D-|---------------------------------------------------------------------------|
    A-|---------------------------------------------------------------------------|
    E-|----1-0-1-0-1-0-1-0-1-0----------------------------------------------------|…
  • -12--0------|
    -12---0-----|
    -12----0----|
    -12-----4---|
    ---------2--|
    ----------0-|
    Harm
    
    
    -12--------------- |  
    -12--7--5------ -- |
    -12--7--5--7-7---- |  8X
    -12--7--5--7-7- -- |
    --------------- -- |
    ------------------…
  • verse, intro, and solo
    
    a-----0-3-------------------------
    e-0-3-----22-0-22-202-------------
    
    
    bridge...they've got these pictures of everything
    a-22-22-33333------------------------------
    e------------1-01-0101-1-01-0101-----------
    
    
    chorus
    
    a-5-------3---------------1--3------------
    e--55-5-5--55-5-5-13-33-33-1--3-----------…
  • Dropped D tuning
    
    Intro
    G|----------------|
    D|----------------|
    A|----------------|
    D|--5-3-0-2-3-5-0-|
    
    Verse
    G|--------------------------------|
    D|--------------------------------|
    A|--------------------------------|
    D|--5-3-0-3-0-0-5-3-0-3-0-0-0-0-0-|
    
    Pre-Chorus
    G|----------------------------------------|
    D|----------------------------------------|
    A|----------------------------------------|
    D|--5-3-0-2-3---5-3-0-2-3---5-3-0-2-3-2-0-|
    
    Chorus
    G|-------------------------------------------------|
    D|-------------------------------------3-4-0-0-----|
    A|---------3h5------0-2-3-2--------3h5---------3h5-|
    D|--0--0-0------0-0----------5-3-0-----------------|
    
    Bridge/Ending
    G|-----------------------------------------------------------------|
    D|-----------------------------------------------------------------|
    A|-8-8-8-8-8-8-8-8-7-7-7-7-7-7-7-7-6-6-6-6-6-6-6-6-5-5-5-5-5-5-5-5-|
    D|-----------------------------------------------------------------|
    
    Bridge/Ending…
  • Em7 B7 Em7 B7 B/E Am7 B7 Bm6 2X
    
    G/B D E/G# 2X
    
    G/B D G B7
    
    Em7 B7 Em7 B7 B/E Am7 B7 Bm6
    
    G/B D E/G# 2X
    
    G/B D G B7
    
    here are the chords used
    
    Em7  Bm7  B/E  Am7  Bm6   G/B
    -7-  -7-  ---  -5-  -7-   -7-
    -8-  -7-  -5-  -5-…
  • Tune guitars down a whole step (D,G,C,f,a,d)
    
    Rhythm figure one
    guitar one
    G5    E5                                                        G5
    |-------------------------------------------------------------------------|
    |-------------------------------------------------------------------------|
    |-------------------------------------------------------------------------|
    |-------------------------------------------------------------------------|
    |--5--5-|-2----2--------2----2---------2-2--|-2---2-----2---2-------5--5--|
    |--3--3-|-0----0--------0----0---------0-0--|-0---0-----0---0-------3--3--|
    |
    |
    |Figure…
  • The verses:
    
    E ----------------
    B ----------------
    G -(0-0)-(0-0)--0-
    D --5-5---5-5---4-
    A --5-5---5-5---5-
    E 00----00----00--
    
    Play this tab over and over through the verses.
    
    Verse 1:
    
    Somebody told me... I know where…
  • -|-0------0--0-0-0-----0--0-----------0------0--0-0-0-----0--0-|-------|------|
    -|-0--0-0-0--0-0-0--0--0--0--------0--0--0-0-0--0-0-0--0--0--0-|-------|------|
    -|-3--3-3-3--3-3-3--3--3--1--------3--3--3-3-3--3-3-3--3--3--1-|-------|------|
    -|-2-------------------2--2--------2--2-------------------2--2-|-------|------|
    -|-2----------------------2--------2--2----------------------2-|-9--2-|------|
    -|-0-------------------------------0--0------------------------|-------|------|…
  • (intro riff)
    
    
    
    ---------| ---------------- |
    ---------|*----------------*|
    ---------|*---------5-7-5--*|
    ------12| -0-0-7-0-------- |
                     
    
    
    verses:
    
    |----------------|----------------|----------------|-----------------…
  • Am         C             G
         slowly
     E |--------|----------|--0-----1--0-|----------|-------------|
     B |--------|--1-----3-|--1----------|--3-----0-|-----------0-|
     G |----2---|--2-------|--0----------|--0-------|--0-----2----|…
  • Intro:F#
    Fill during F#'s;
    -----2--------|
    -2h4----------|
    --------3-----|
    --------------|
    --------------|
    --------------|
         F#
         Finally I've met you
         The day has come
         You're more than beautiful
         And…
  • Tuning: Standard (GDAE)
    
    VERSE (Yeah, I could hide in the calm)
    
    G|-----------------------------------------|
    D|-----------------------------------------|
    A|-----(7)-----(7)------(7)--------5-------|
    E|-3-0------3-0-----3-0------3-5-3----(0)--|…
  • Drop D tuning (If you don't know what that is, you've no chance with this riff!)
    
    G----------------------------------------------------------------------------------
    D----------------------------------------------------------------------------------
    A----------------3-4-5---5---------------------------------------------------------
    D--7---5-6-7---7-----------7-6-5---5-2-1-0---0-5-6-7---7-2-1-0---0-5-6-7---7-0-7-0-
    
    This…
  • Normal tuning (GDAE)
    
    
    Main riff 1-
    G:-----------------------------------
    D:-----------------------------------
    A:--7----6----4--2-------------------
    E:-------------------5----4----2--0--
    
    Main riff 2-
    G:--------------------------------------------
    D:--------------------------------------------
    A:--7----6----4--2------------------------4---
    E:-------------------5-5--5-5--5-5--0-4h5---h5…
  • normal tuning (low to hi EADGbe)
    
    e|------------------------------------------------------------
    b|--------0h1------------1--------------2h3-------------------
    G|------2-----2--------0---0---------4------4---------4-------
    D|----2----------2---2--------2---4-----------------4----4----
    A|--0--------------3------------2----------------5---------5--
    E|---------------------------------------------3--------------
    
    e|----------------------------------------------------
    b|--------------------------------------------3--1--0-
    G|--------2-------------7--------------0------0--2--0-
    D|------2---2---------7---7----------2--------2--0--2-
    A|----3-------3----8--------8------2----------0--0--2-
    E|--1------------6--------------0-------------------0-…
  • Verse
    -----------------------|----------------------------|
    --------------------10-|-8-7------------------------|
    ---3-3---3-3-/7-10-----|------10--------------------|
    -------3---------------|---------8-8--0-1-3---------|
    
    --------------------|-3-2-0-------------------------|
    ------(5)-------2-5-|-------3-----2-3-5-------------|
    --3-3-----3-3-3-----|----------3--------------------|
    -------3------------|-------------------------------|
    
    -----------------------|----------------------------|
    --------------------10-|-8-7------------------------|
    ---3-3---3-3-/7-10-----|------10--------------------|
    -------3---------------|---------8-8--0-1-3---------|
    
    ------------------|---------------------------------|
    ------------------|---------------------------------|
    --3-3---3-3-------|-1-0-----------------------------|
    ------3-----0-1-3-|------3--1--0--1--3/-------------|
    
    Pre…
  • Verse 1  	 Not on 1x
    G---------------|---0---1-0---|------------------------------|
    D--------0--2-2-|-2---2-----2-|-----------------------4-5-7--|
    A------2--------|-------------|-3535-5--3-3--2--2-2----------|
    E-3-3-----------|-------------|------------------------------|
    				^…
  • Intro:
     The chords go : D-C-Bb-C-Bb-Bb-F
    
    E|---5----3--1-1----3--1-1----------|     Play 2x
    B|---7----5--3-3----5--3-3----------|
    G|---7----5--3-3----5--3-3----------|
    D|---7----5--3-3----5--3-3--8-8-8-3-|
    A|-5-5--3-3--1-1--3-3--1-1--8-8-8-3-|
    E|--------------------------6-6-6-1-|
    
    I…
  • Verse - Just switch between A and E until the Chorus (follow the guitar)
    
    Chorus
    G---------------------------------------------------------------|
    D-----------------4-44------44-------4-44----------4-44------44-|
    A-2/16-16-16----------------------------------------------------|
    E------------2-2-------2-22----2-2-2-------2-2h5-5------5-55----|
    
    G------------------------|
    D-------4-44--4-2-1-1----|
    A-2-2-2---------------2--|
    E------------------------|
    
    Verse…
  • Normal tuning  (EADG)
    
    Verse
    
    G|--------------------------------------------|
    D|----------------------------------5--4------|
    A|------2-----7--6------------2-5---------5---|
    E|--2/4---0---------7-----2/4-----------------|
    
    Chorus…
  • Dropped D Tuning
    
    Intro       						      	     2X
    G----------------------------------|----------------------------------|
    D----------------------------------|----------------------------------|
    A----------------------------------|----------------------------------|
    D-10b-8--6----8b-6--5----5b---3----|5b-3--0---0-5b-3--0---0-5b---3----|
    
    Verse…
  • G------------
    D------------
    A-2-0-2-----
    E--------0---   This is the beginning, do this 4 times.
    
    Here's the Verse:
    
    G------------------------------------------------------------
    D------------9-7-----5-7-5---7----7-8-9---7-9---9-7-9---
    A---7-7-7-7------------------------------------------------
    E------------------------------------------------------------
    
    Here's…
  • Intro/Outro
    G|-------------------------------------------|
    D|----------------------------------------7--|
    A|-10-------------5------10------------5--0--|
    E|----10--5---3-----5------10--5--3--------|
    
    Verse A…
  • Verse
    
       D5     F5    B?
    E|-------------------|
    B|-------------------|
    G|--------1010-------|       This is probably way off...
    D|-12-12--1010--9----|
    A|-12-12--8-8---8----|
    E|-10-10--------7----|
    
    Chorus
      F5 G5…
  • / slide up   slide down
    m mute  s strum down slowly
    v strum down
    ^strum up
    
    -|-------------0------------0----------------------------------------------|--
    -|---0---0-----0----0---0---0--------------------------------0-------0-----|--
    -|---3---3---x-3----3---3---3---------------5--------xx6--6--6-6--6--6-6-6-|--
    -|---4---4---x-4----4---4---4-------------3-3-2------xxx--x--x-x--x--x-x-x-|--
    -|---5---5---x-5----5---5---5--/8-8-8-3--3-3-3--3-3-xx4--4--4-4--4--4-4-4-|--
    -|3----3---3-x----3---3---3---3-5-6-5-1--1-1-0--1-0-xx5--5--5-5--5--5-5-5-|--…
  • Dropped-D tuning - DADGBe (low to high)
    
    
    Intro (also Verse/Bridge Filler)
    e|-----1---0---1----|
    B|------------------|
    G|---2--------------|
    D|-0----------------|
    A|------------------|
    D|------------------|
       1 & 2 & 3…
  • Intro: (fades in)
    
    e -------------|
    b 86-8-10-8---|
    d -------------|  (watch the timing, it's not 4/4)
    g -------------|
    a -------------|
    E -------------|
    
    Verses:
    
    e 3-----3-3-----3-3-3-3-----3-3-3-|1-----1-1-----1-1-1-1-----------|
    b…
Наверх